  0
SECTION
  2
HEADER
  9
$ACADVER
  1
AC1009
  9
$INSBASE
 10
0.0
 20
0.0
 30
0.0
  9
$EXTMIN
 10
3075.6177226443419
 20
1825.635041440991
 30
-0.0015258207003583
  9
$EXTMAX
 10
3109.1661565626182
 20
1862.725844986458
 30
0.0000000349246037
  9
$LIMMIN
 10
0.0
 20
0.0
  9
$LIMMAX
 10
420.0
 20
297.0
  9
$ORTHOMODE
 70
     0
  9
$REGENMODE
 70
     1
  9
$FILLMODE
 70
     1
  9
$QTEXTMODE
 70
     0
  9
$MIRRTEXT
 70
     0
  9
$DRAGMODE
 70
     2
  9
$LTSCALE
 40
1.0
  9
$OSMODE
 70
   679
  9
$ATTMODE
 70
     1
  9
$TEXTSIZE
 40
2.5
  9
$TRACEWID
 40
1.0
  9
$TEXTSTYLE
  7
STANDARD
  9
$CLAYER
  8
0
  9
$CELTYPE
  6
BYLAYER
  9
$CECOLOR
 62
   256
  9
$DIMSCALE
 40
1.0
  9
$DIMASZ
 40
2.5
  9
$DIMEXO
 40
0.625
  9
$DIMDLI
 40
3.75
  9
$DIMRND
 40
0.0
  9
$DIMDLE
 40
0.0
  9
$DIMEXE
 40
1.25
  9
$DIMTP
 40
0.0
  9
$DIMTM
 40
0.0
  9
$DIMTXT
 40
2.5
  9
$DIMCEN
 40
2.5
  9
$DIMTSZ
 40
0.0
  9
$DIMTOL
 70
     0
  9
$DIMLIM
 70
     0
  9
$DIMTIH
 70
     0
  9
$DIMTOH
 70
     0
  9
$DIMSE1
 70
     0
  9
$DIMSE2
 70
     0
  9
$DIMTAD
 70
     1
  9
$DIMZIN
 70
     8
  9
$DIMBLK
  1

  9
$DIMASO
 70
     1
  9
$DIMSHO
 70
     1
  9
$DIMPOST
  1

  9
$DIMAPOST
  1

  9
$DIMALT
 70
     0
  9
$DIMALTD
 70
     3
  9
$DIMALTF
 40
0.03937007874016
  9
$DIMLFAC
 40
1.0
  9
$DIMTOFL
 70
     1
  9
$DIMTVP
 40
0.0
  9
$DIMTIX
 70
     0
  9
$DIMSOXD
 70
     0
  9
$DIMSAH
 70
     0
  9
$DIMBLK1
  1

  9
$DIMBLK2
  1

  9
$DIMSTYLE
  2
ISO-25
  9
$DIMCLRD
 70
     0
  9
$DIMCLRE
 70
     0
  9
$DIMCLRT
 70
     0
  9
$DIMTFAC
 40
1.0
  9
$DIMGAP
 40
0.625
  9
$LUNITS
 70
     2
  9
$LUPREC
 70
     4
  9
$SKETCHINC
 40
1.0
  9
$FILLETRAD
 40
0.0
  9
$AUNITS
 70
     0
  9
$AUPREC
 70
     0
  9
$MENU
  1
.
  9
$ELEVATION
 40
0.0
  9
$PELEVATION
 40
0.0
  9
$THICKNESS
 40
0.0
  9
$LIMCHECK
 70
     0
  9
$BLIPMODE
 70
     0
  9
$CHAMFERA
 40
0.0
  9
$CHAMFERB
 40
0.0
  9
$SKPOLY
 70
     0
  9
$TDCREATE
 40
2456925.6255653589
  9
$TDUPDATE
 40
2456930.3849716671
  9
$TDINDWG
 40
0.0009416782
  9
$TDUSRTIMER
 40
0.0009416782
  9
$USRTIMER
 70
     1
  9
$ANGBASE
 50
0.0
  9
$ANGDIR
 70
     0
  9
$PDMODE
 70
     0
  9
$PDSIZE
 40
0.0
  9
$PLINEWID
 40
0.0
  9
$COORDS
 70
     2
  9
$SPLFRAME
 70
     0
  9
$SPLINETYPE
 70
     6
  9
$SPLINESEGS
 70
     8
  9
$ATTDIA
 70
     0
  9
$ATTREQ
 70
     1
  9
$HANDLING
 70
     1
  9
$HANDSEED
  5
C08
  9
$SURFTAB1
 70
     6
  9
$SURFTAB2
 70
     6
  9
$SURFTYPE
 70
     6
  9
$SURFU
 70
     6
  9
$SURFV
 70
     6
  9
$UCSNAME
  2

  9
$UCSORG
 10
0.0
 20
0.0
 30
0.0
  9
$UCSXDIR
 10
1.0
 20
0.0
 30
0.0
  9
$UCSYDIR
 10
0.0
 20
1.0
 30
0.0
  9
$PUCSNAME
  2

  9
$PUCSORG
 10
0.0
 20
0.0
 30
0.0
  9
$PUCSXDIR
 10
1.0
 20
0.0
 30
0.0
  9
$PUCSYDIR
 10
0.0
 20
1.0
 30
0.0
  9
$USERI1
 70
     0
  9
$USERI2
 70
     0
  9
$USERI3
 70
     0
  9
$USERI4
 70
     0
  9
$USERI5
 70
     0
  9
$USERR1
 40
0.0
  9
$USERR2
 40
0.0
  9
$USERR3
 40
0.0
  9
$USERR4
 40
0.0
  9
$USERR5
 40
0.0
  9
$WORLDVIEW
 70
     1
  9
$SHADEDGE
 70
     3
  9
$SHADEDIF
 70
    70
  9
$TILEMODE
 70
     1
  9
$MAXACTVP
 70
    64
  9
$PLIMCHECK
 70
     0
  9
$PEXTMIN
 10
0.0
 20
0.0
 30
0.0
  9
$PEXTMAX
 10
0.0
 20
0.0
 30
0.0
  9
$PLIMMIN
 10
0.0
 20
0.0
  9
$PLIMMAX
 10
12.0
 20
9.0
  9
$UNITMODE
 70
     0
  9
$VISRETAIN
 70
     1
  9
$PLINEGEN
 70
     0
  9
$PSLTSCALE
 70
     1
  0
ENDSEC
  0
SECTION
  2
TABLES
  0
TABLE
  2
VPORT
 70
     1
  0
VPORT
  2
*ACTIVE
 70
     0
 10
0.0
 20
0.0
 11
1.0
 21
1.0
 12
3092.4283785369112
 22
1845.6888931825099
 13
0.0
 23
0.0
 14
10.0
 24
10.0
 15
10.0
 25
10.0
 16
0.0
 26
0.0
 36
1.0
 17
0.0
 27
0.0
 37
0.0
 40
59.747655710695682
 41
1.9598108747044909
 42
50.0
 43
0.0
 44
0.0
 50
0.0
 51
0.0
 71
     0
 72
  1000
 73
     1
 74
     3
 75
     0
 76
     0
 77
     0
 78
     0
  0
ENDTAB
  0
TABLE
  2
LTYPE
 70
     1
  0
LTYPE
  2
CONTINUOUS
 70
     0
  3
Solid line
 72
    65
 73
     0
 40
0.0
  0
ENDTAB
  0
TABLE
  2
LAYER
 70
     1
  0
LAYER
  2
0
 70
     0
 62
     7
  6
CONTINUOUS
  0
ENDTAB
  0
TABLE
  2
STYLE
 70
     2
  0
STYLE
  2
STANDARD
 70
     0
 40
0.0
 41
1.0
 50
0.0
 71
     0
 42
2.5
  3
txt
  4

  0
STYLE
  2
ANNOTATIVA
 70
     0
 40
0.0
 41
1.0
 50
0.0
 71
     0
 42
2.5
  3
txt
  4

  0
ENDTAB
  0
TABLE
  2
VIEW
 70
     0
  0
ENDTAB
  0
TABLE
  2
UCS
 70
     0
  0
ENDTAB
  0
TABLE
  2
APPID
 70
    13
  0
APPID
  2
ACAD
 70
     0
  0
APPID
  2
ACAD_PSEXT
 70
     0
  0
APPID
  2
ACADANNOPO
 70
     0
  0
APPID
  2
ACADANNOTATIVE
 70
     0
  0
APPID
  2
ACAD_DSTYLE_DIMJAG
 70
     0
  0
APPID
  2
ACAD_DSTYLE_DIMTALN
 70
     0
  0
APPID
  2
ACAD_MLEADERVER
 70
     0
  0
APPID
  2
ACAD_DSTYLE_DIMJOGGED_JOGA
 70
     0
  0
APPID
  2
ACAD_DSTYLE_DIMEXT_ENABLED
 70
     0
  0
APPID
  2
ACAD_DSTYLE_DIMEXT_LENGTH
 70
     0
  0
APPID
  2
ACAD_DSTYLE_DIM_LINETYPE
 70
     0
  0
APPID
  2
ACAD_DSTYLE_DIM_EXT1_LINETYPE
 70
     0
  0
APPID
  2
ACAD_DSTYLE_DIM_EXT2_LINETYPE
 70
     0
  0
ENDTAB
  0
TABLE
  2
DIMSTYLE
 70
     4
  0
DIMSTYLE
  2
STANDARD
 70
     0
  3

  4

  5

  6

  7

 40
1.0
 41
0.18
 42
0.0625
 43
0.38
 44
0.18
 45
0.0
 46
0.0
 47
0.0
 48
0.0
140
0.18
141
0.09
142
0.0
143
25.399999999999999
144
1.0
145
0.0
146
1.0
147
0.09
 71
     0
 72
     0
 73
     1
 74
     1
 75
     0
 76
     0
 77
     0
 78
     0
170
     0
171
     2
172
     0
173
     0
174
     0
175
     0
176
     0
177
     0
178
     0
  0
DIMSTYLE
  2
ANNOTATIVA
 70
     0
  3

  4

  5

  6

  7

 40
0.0
 41
2.5
 42
0.625
 43
3.75
 44
1.25
 45
0.0
 46
0.0
 47
0.0
 48
0.0
140
2.5
141
2.5
142
0.0
143
0.03937007874016
144
1.0
145
0.0
146
1.0
147
0.625
 71
     0
 72
     0
 73
     0
 74
     0
 75
     0
 76
     0
 77
     1
 78
     8
170
     0
171
     3
172
     1
173
     0
174
     0
175
     0
176
     0
177
     0
178
     0
  0
DIMSTYLE
  2
ISO-25
 70
     0
  3

  4

  5

  6

  7

 40
1.0
 41
2.5
 42
0.625
 43
3.75
 44
1.25
 45
0.0
 46
0.0
 47
0.0
 48
0.0
140
2.5
141
2.5
142
0.0
143
0.03937007874016
144
1.0
145
0.0
146
1.0
147
0.625
 71
     0
 72
     0
 73
     0
 74
     0
 75
     0
 76
     0
 77
     1
 78
     8
170
     0
171
     3
172
     1
173
     0
174
     0
175
     0
176
     0
177
     0
178
     0
  0
DIMSTYLE
  2
DAVIDE
 70
     0
  3

  4

  5

  6

  7

 40
1.0
 41
5.0
 42
10.0
 43
5.0
 44
10.0
 45
0.0
 46
0.0
 47
0.0
 48
0.0
140
6.0
141
10.0
142
0.0
143
0.03937007874016
144
1.0
145
0.0
146
1.0
147
1.5
 71
     0
 72
     0
 73
     1
 74
     1
 75
     0
 76
     0
 77
     0
 78
     8
170
     0
171
     3
172
     1
173
     0
174
     0
175
     0
176
   256
177
   256
178
   256
  0
ENDTAB
  0
ENDSEC
  0
SECTION
  2
BLOCKS
  0
BLOCK
  8
0
  2
$MODEL_SPACE
 70
     0
 10
0.0
 20
0.0
 30
0.0
  3
$MODEL_SPACE
  1

  0
ENDBLK
  5
21
  8
0
  0
BLOCK
 67
     1
  8
0
  2
$PAPER_SPACE
 70
     0
 10
0.0
 20
0.0
 30
0.0
  3
$PAPER_SPACE
  1

  0
ENDBLK
  5
D5
 67
     1
  8
0
  0
ENDSEC
  0
SECTION
  2
ENTITIES
  0
LINE
  5
28E
  8
0
 10
3108.2514475944649
 20
1862.668996502905
 30
0.0
 11
3092.4541388859352
 21
1862.668996502905
 31
0.0
  0
LINE
  5
28F
  8
0
 10
3092.4541388859352
 20
1855.6235736154649
 30
0.0
 11
3108.9541388859352
 21
1855.6235736154649
 31
0.0
  0
LINE
  5
290
  8
0
 10
3092.4541388859352
 20
1851.2071334663749
 30
0.0
 11
3100.9541388859352
 21
1851.2071334663749
 31
0.0
  0
LINE
  5
291
  8
0
 10
3104.9541388859352
 20
1848.309159280175
 30
0.0
 11
3104.9541388859352
 21
1837.621140020965
 31
0.0
  0
LINE
  5
292
  8
0
 10
3108.9541388859352
 20
1855.6235736154649
 30
0.0
 11
3108.9541388859352
 21
1837.621140020965
 31
0.0
  0
ARC
  5
2CA
  8
0
 10
3898.685963724025
 20
1937.947028791795
 30
0.0
 40
794.01102412640012
 50
185.44022819823221
 51
185.95114949922331
  0
ARC
  5
2CB
  8
0
 10
3092.4536426351751
 20
1848.4413090385549
 30
0.0
 40
22.774314990419999
 50
270.00124847095179
 51
270.28391747233508
  0
ARC
  5
2CC
  8
0
 10
3092.4541388859352
 20
1844.168996502905
 30
0.0
 40
4.25
 50
270.0
 51
90.0
  0
ARC
  5
2CD
  8
0
 10
3092.4541388859352
 20
1844.168996502905
 30
0.0
 40
2.6000000000000001
 50
270.0
 51
90.0
  0
POLYLINE
  8
0
  5
378
  66
     1
 10
0.000000
 20
0.000000
 30
0.000000
  70
     8
  0
VERTEX
  8
0
  5
379
 10
3108.95
 20
1837.62
 30
0.000000
  70
    32
  0
VERTEX
  8
0
  5
37A
 10
3108.95
 20
1837.59
 30
0.000000
  70
    32
  0
VERTEX
  8
0
  5
37B
 10
3108.95
 20
1837.56
 30
0.000000
  70
    32
  0
VERTEX
  8
0
  5
37C
 10
3108.95
 20
1837.53
 30
0.000000
  70
    32
  0
VERTEX
  8
0
  5
37D
 10
3108.95
 20
1837.50
 30
0.000000
  70
    32
  0
VERTEX
  8
0
  5
37E
 10
3108.95
 20
1837.47
 30
0.000000
  70
    32
  0
VERTEX
  8
0
  5
37F
 10
3108.95
 20
1837.44
 30
0.000000
  70
    32
  0
VERTEX
  8
0
  5
380
 10
3108.95
 20
1837.41
 30
0.000000
  70
    32
  0
VERTEX
  8
0
  5
381
 10
3108.95
 20
1837.38
 30
0.000000
  70
    32
  0
VERTEX
  8
0
  5
382
 10
3108.95
 20
1837.35
 30
0.000000
  70
    32
  0
VERTEX
  8
0
  5
383
 10
3108.95
 20
1837.32
 30
0.000000
  70
    32
  0
VERTEX
  8
0
  5
384
 10
3108.95
 20
1837.29
 30
0.000000
  70
    32
  0
VERTEX
  8
0
  5
385
 10
3108.95
 20
1837.27
 30
0.000000
  70
    32
  0
VERTEX
  8
0
  5
386
 10
3108.95
 20
1837.24
 30
0.000000
  70
    32
  0
VERTEX
  8
0
  5
387
 10
3108.94
 20
1837.21
 30
0.000000
  70
    32
  0
VERTEX
  8
0
  5
388
 10
3108.94
 20
1837.18
 30
0.000000
  70
    32
  0
VERTEX
  8
0
  5
389
 10
3108.94
 20
1837.15
 30
0.000000
  70
    32
  0
VERTEX
  8
0
  5
38A
 10
3108.94
 20
1837.12
 30
0.000000
  70
    32
  0
VERTEX
  8
0
  5
38B
 10
3108.94
 20
1837.09
 30
0.000000
  70
    32
  0
VERTEX
  8
0
  5
38C
 10
3108.94
 20
1837.06
 30
0.000000
  70
    32
  0
VERTEX
  8
0
  5
38D
 10
3108.93
 20
1837.03
 30
0.000000
  70
    32
  0
VERTEX
  8
0
  5
38E
 10
3108.93
 20
1837.00
 30
0.000000
  70
    32
  0
VERTEX
  8
0
  5
38F
 10
3108.93
 20
1836.97
 30
0.000000
  70
    32
  0
VERTEX
  8
0
  5
390
 10
3108.93
 20
1836.94
 30
0.000000
  70
    32
  0
VERTEX
  8
0
  5
391
 10
3108.92
 20
1836.91
 30
0.000000
  70
    32
  0
VERTEX
  8
0
  5
392
 10
3108.92
 20
1836.88
 30
0.000000
  70
    32
  0
VERTEX
  8
0
  5
393
 10
3108.92
 20
1836.85
 30
0.000000
  70
    32
  0
VERTEX
  8
0
  5
394
 10
3108.92
 20
1836.82
 30
0.000000
  70
    32
  0
VERTEX
  8
0
  5
395
 10
3108.91
 20
1836.79
 30
0.000000
  70
    32
  0
VERTEX
  8
0
  5
396
 10
3108.91
 20
1836.76
 30
0.000000
  70
    32
  0
VERTEX
  8
0
  5
397
 10
3108.91
 20
1836.73
 30
0.000000
  70
    32
  0
VERTEX
  8
0
  5
398
 10
3108.90
 20
1836.70
 30
0.000000
  70
    32
  0
VERTEX
  8
0
  5
399
 10
3108.90
 20
1836.67
 30
0.000000
  70
    32
  0
VERTEX
  8
0
  5
39A
 10
3108.90
 20
1836.64
 30
0.000000
  70
    32
  0
VERTEX
  8
0
  5
39B
 10
3108.89
 20
1836.61
 30
0.000000
  70
    32
  0
VERTEX
  8
0
  5
39C
 10
3108.89
 20
1836.58
 30
0.000000
  70
    32
  0
VERTEX
  8
0
  5
39D
 10
3108.89
 20
1836.55
 30
0.000000
  70
    32
  0
VERTEX
  8
0
  5
39E
 10
3108.88
 20
1836.53
 30
0.000000
  70
    32
  0
VERTEX
  8
0
  5
39F
 10
3108.88
 20
1836.50
 30
0.000000
  70
    32
  0
VERTEX
  8
0
  5
3A0
 10
3108.88
 20
1836.47
 30
0.000000
  70
    32
  0
VERTEX
  8
0
  5
3A1
 10
3108.87
 20
1836.44
 30
0.000000
  70
    32
  0
VERTEX
  8
0
  5
3A2
 10
3108.87
 20
1836.41
 30
0.000000
  70
    32
  0
VERTEX
  8
0
  5
3A3
 10
3108.86
 20
1836.38
 30
0.000000
  70
    32
  0
VERTEX
  8
0
  5
3A4
 10
3108.86
 20
1836.35
 30
0.000000
  70
    32
  0
VERTEX
  8
0
  5
3A5
 10
3108.86
 20
1836.32
 30
0.000000
  70
    32
  0
VERTEX
  8
0
  5
3A6
 10
3108.85
 20
1836.29
 30
0.000000
  70
    32
  0
VERTEX
  8
0
  5
3A7
 10
3108.85
 20
1836.26
 30
0.000000
  70
    32
  0
VERTEX
  8
0
  5
3A8
 10
3108.84
 20
1836.23
 30
0.000000
  70
    32
  0
VERTEX
  8
0
  5
3A9
 10
3108.84
 20
1836.20
 30
0.000000
  70
    32
  0
VERTEX
  8
0
  5
3AA
 10
3108.83
 20
1836.17
 30
0.000000
  70
    32
  0
VERTEX
  8
0
  5
3AB
 10
3108.83
 20
1836.14
 30
0.000000
  70
    32
  0
VERTEX
  8
0
  5
3AC
 10
3108.82
 20
1836.11
 30
0.000000
  70
    32
  0
VERTEX
  8
0
  5
3AD
 10
3108.82
 20
1836.08
 30
0.000000
  70
    32
  0
VERTEX
  8
0
  5
3AE
 10
3108.81
 20
1836.05
 30
0.000000
  70
    32
  0
VERTEX
  8
0
  5
3AF
 10
3108.81
 20
1836.03
 30
0.000000
  70
    32
  0
VERTEX
  8
0
  5
3B0
 10
3108.80
 20
1836.00
 30
0.000000
  70
    32
  0
VERTEX
  8
0
  5
3B1
 10
3108.79
 20
1835.97
 30
0.000000
  70
    32
  0
VERTEX
  8
0
  5
3B2
 10
3108.79
 20
1835.94
 30
0.000000
  70
    32
  0
VERTEX
  8
0
  5
3B3
 10
3108.78
 20
1835.91
 30
0.000000
  70
    32
  0
VERTEX
  8
0
  5
3B4
 10
3108.78
 20
1835.88
 30
0.000000
  70
    32
  0
VERTEX
  8
0
  5
3B5
 10
3108.77
 20
1835.85
 30
0.000000
  70
    32
  0
VERTEX
  8
0
  5
3B6
 10
3108.77
 20
1835.82
 30
0.000000
  70
    32
  0
VERTEX
  8
0
  5
3B7
 10
3108.76
 20
1835.79
 30
0.000000
  70
    32
  0
VERTEX
  8
0
  5
3B8
 10
3108.75
 20
1835.76
 30
0.000000
  70
    32
  0
VERTEX
  8
0
  5
3B9
 10
3108.75
 20
1835.73
 30
0.000000
  70
    32
  0
VERTEX
  8
0
  5
3BA
 10
3108.74
 20
1835.70
 30
0.000000
  70
    32
  0
VERTEX
  8
0
  5
3BB
 10
3108.73
 20
1835.68
 30
0.000000
  70
    32
  0
VERTEX
  8
0
  5
3BC
 10
3108.73
 20
1835.65
 30
0.000000
  70
    32
  0
VERTEX
  8
0
  5
3BD
 10
3108.72
 20
1835.62
 30
0.000000
  70
    32
  0
VERTEX
  8
0
  5
3BE
 10
3108.71
 20
1835.59
 30
0.000000
  70
    32
  0
VERTEX
  8
0
  5
3BF
 10
3108.71
 20
1835.56
 30
0.000000
  70
    32
  0
VERTEX
  8
0
  5
3C0
 10
3108.70
 20
1835.53
 30
0.000000
  70
    32
  0
VERTEX
  8
0
  5
3C1
 10
3108.69
 20
1835.50
 30
0.000000
  70
    32
  0
VERTEX
  8
0
  5
3C2
 10
3108.68
 20
1835.47
 30
0.000000
  70
    32
  0
VERTEX
  8
0
  5
3C3
 10
3108.68
 20
1835.44
 30
0.000000
  70
    32
  0
VERTEX
  8
0
  5
3C4
 10
3108.67
 20
1835.42
 30
0.000000
  70
    32
  0
VERTEX
  8
0
  5
3C5
 10
3108.66
 20
1835.39
 30
0.000000
  70
    32
  0
VERTEX
  8
0
  5
3C6
 10
3108.65
 20
1835.36
 30
0.000000
  70
    32
  0
VERTEX
  8
0
  5
3C7
 10
3108.65
 20
1835.33
 30
0.000000
  70
    32
  0
VERTEX
  8
0
  5
3C8
 10
3108.64
 20
1835.30
 30
0.000000
  70
    32
  0
VERTEX
  8
0
  5
3C9
 10
3108.63
 20
1835.27
 30
0.000000
  70
    32
  0
VERTEX
  8
0
  5
3CA
 10
3108.62
 20
1835.24
 30
0.000000
  70
    32
  0
VERTEX
  8
0
  5
3CB
 10
3108.62
 20
1835.21
 30
0.000000
  70
    32
  0
VERTEX
  8
0
  5
3CC
 10
3108.61
 20
1835.19
 30
0.000000
  70
    32
  0
VERTEX
  8
0
  5
3CD
 10
3108.60
 20
1835.16
 30
0.000000
  70
    32
  0
VERTEX
  8
0
  5
3CE
 10
3108.59
 20
1835.13
 30
0.000000
  70
    32
  0
VERTEX
  8
0
  5
3CF
 10
3108.58
 20
1835.10
 30
0.000000
  70
    32
  0
VERTEX
  8
0
  5
3D0
 10
3108.57
 20
1835.07
 30
0.000000
  70
    32
  0
VERTEX
  8
0
  5
3D1
 10
3108.57
 20
1835.04
 30
0.000000
  70
    32
  0
VERTEX
  8
0
  5
3D2
 10
3108.56
 20
1835.01
 30
0.000000
  70
    32
  0
VERTEX
  8
0
  5
3D3
 10
3108.55
 20
1834.99
 30
0.000000
  70
    32
  0
VERTEX
  8
0
  5
3D4
 10
3108.54
 20
1834.96
 30
0.000000
  70
    32
  0
VERTEX
  8
0
  5
3D5
 10
3108.53
 20
1834.93
 30
0.000000
  70
    32
  0
VERTEX
  8
0
  5
3D6
 10
3108.52
 20
1834.90
 30
0.000000
  70
    32
  0
VERTEX
  8
0
  5
3D7
 10
3108.51
 20
1834.87
 30
0.000000
  70
    32
  0
VERTEX
  8
0
  5
3D8
 10
3108.50
 20
1834.84
 30
0.000000
  70
    32
  0
VERTEX
  8
0
  5
3D9
 10
3108.49
 20
1834.82
 30
0.000000
  70
    32
  0
VERTEX
  8
0
  5
3DA
 10
3108.48
 20
1834.79
 30
0.000000
  70
    32
  0
VERTEX
  8
0
  5
3DB
 10
3108.47
 20
1834.76
 30
0.000000
  70
    32
  0
VERTEX
  8
0
  5
3DC
 10
3108.46
 20
1834.73
 30
0.000000
  70
    32
  0
VERTEX
  8
0
  5
3DD
 10
3108.45
 20
1834.70
 30
0.000000
  70
    32
  0
VERTEX
  8
0
  5
3DE
 10
3108.44
 20
1834.68
 30
0.000000
  70
    32
  0
VERTEX
  8
0
  5
3DF
 10
3108.43
 20
1834.65
 30
0.000000
  70
    32
  0
VERTEX
  8
0
  5
3E0
 10
3108.42
 20
1834.62
 30
0.000000
  70
    32
  0
VERTEX
  8
0
  5
3E1
 10
3108.41
 20
1834.59
 30
0.000000
  70
    32
  0
VERTEX
  8
0
  5
3E2
 10
3108.40
 20
1834.56
 30
0.000000
  70
    32
  0
VERTEX
  8
0
  5
3E3
 10
3108.39
 20
1834.54
 30
0.000000
  70
    32
  0
VERTEX
  8
0
  5
3E4
 10
3108.38
 20
1834.51
 30
0.000000
  70
    32
  0
VERTEX
  8
0
  5
3E5
 10
3108.37
 20
1834.48
 30
0.000000
  70
    32
  0
VERTEX
  8
0
  5
3E6
 10
3108.36
 20
1834.45
 30
0.000000
  70
    32
  0
VERTEX
  8
0
  5
3E7
 10
3108.35
 20
1834.42
 30
0.000000
  70
    32
  0
VERTEX
  8
0
  5
3E8
 10
3108.34
 20
1834.40
 30
0.000000
  70
    32
  0
VERTEX
  8
0
  5
3E9
 10
3108.33
 20
1834.37
 30
0.000000
  70
    32
  0
VERTEX
  8
0
  5
3EA
 10
3108.32
 20
1834.34
 30
0.000000
  70
    32
  0
VERTEX
  8
0
  5
3EB
 10
3108.31
 20
1834.31
 30
0.000000
  70
    32
  0
VERTEX
  8
0
  5
3EC
 10
3108.30
 20
1834.29
 30
0.000000
  70
    32
  0
VERTEX
  8
0
  5
3ED
 10
3108.29
 20
1834.26
 30
0.000000
  70
    32
  0
VERTEX
  8
0
  5
3EE
 10
3108.28
 20
1834.23
 30
0.000000
  70
    32
  0
VERTEX
  8
0
  5
3EF
 10
3108.26
 20
1834.20
 30
0.000000
  70
    32
  0
VERTEX
  8
0
  5
3F0
 10
3108.25
 20
1834.18
 30
0.000000
  70
    32
  0
VERTEX
  8
0
  5
3F1
 10
3108.24
 20
1834.15
 30
0.000000
  70
    32
  0
VERTEX
  8
0
  5
3F2
 10
3108.23
 20
1834.12
 30
0.000000
  70
    32
  0
VERTEX
  8
0
  5
3F3
 10
3108.22
 20
1834.09
 30
0.000000
  70
    32
  0
VERTEX
  8
0
  5
3F4
 10
3108.21
 20
1834.07
 30
0.000000
  70
    32
  0
VERTEX
  8
0
  5
3F5
 10
3108.20
 20
1834.04
 30
0.000000
  70
    32
  0
VERTEX
  8
0
  5
3F6
 10
3108.18
 20
1834.01
 30
0.000000
  70
    32
  0
VERTEX
  8
0
  5
3F7
 10
3108.17
 20
1833.98
 30
0.000000
  70
    32
  0
VERTEX
  8
0
  5
3F8
 10
3108.16
 20
1833.96
 30
0.000000
  70
    32
  0
VERTEX
  8
0
  5
3F9
 10
3108.15
 20
1833.93
 30
0.000000
  70
    32
  0
VERTEX
  8
0
  5
3FA
 10
3108.14
 20
1833.90
 30
0.000000
  70
    32
  0
VERTEX
  8
0
  5
3FB
 10
3108.12
 20
1833.88
 30
0.000000
  70
    32
  0
VERTEX
  8
0
  5
3FC
 10
3108.11
 20
1833.85
 30
0.000000
  70
    32
  0
VERTEX
  8
0
  5
3FD
 10
3108.10
 20
1833.82
 30
0.000000
  70
    32
  0
VERTEX
  8
0
  5
3FE
 10
3108.09
 20
1833.79
 30
0.000000
  70
    32
  0
VERTEX
  8
0
  5
3FF
 10
3108.07
 20
1833.77
 30
0.000000
  70
    32
  0
VERTEX
  8
0
  5
400
 10
3108.06
 20
1833.74
 30
0.000000
  70
    32
  0
VERTEX
  8
0
  5
401
 10
3108.05
 20
1833.71
 30
0.000000
  70
    32
  0
VERTEX
  8
0
  5
402
 10
3108.03
 20
1833.69
 30
0.000000
  70
    32
  0
VERTEX
  8
0
  5
403
 10
3108.02
 20
1833.66
 30
0.000000
  70
    32
  0
VERTEX
  8
0
  5
404
 10
3108.01
 20
1833.63
 30
0.000000
  70
    32
  0
VERTEX
  8
0
  5
405
 10
3108.00
 20
1833.61
 30
0.000000
  70
    32
  0
VERTEX
  8
0
  5
406
 10
3107.98
 20
1833.58
 30
0.000000
  70
    32
  0
VERTEX
  8
0
  5
407
 10
3107.97
 20
1833.55
 30
0.000000
  70
    32
  0
VERTEX
  8
0
  5
408
 10
3107.96
 20
1833.53
 30
0.000000
  70
    32
  0
VERTEX
  8
0
  5
409
 10
3107.94
 20
1833.50
 30
0.000000
  70
    32
  0
VERTEX
  8
0
  5
40A
 10
3107.93
 20
1833.47
 30
0.000000
  70
    32
  0
VERTEX
  8
0
  5
40B
 10
3107.92
 20
1833.45
 30
0.000000
  70
    32
  0
VERTEX
  8
0
  5
40C
 10
3107.90
 20
1833.42
 30
0.000000
  70
    32
  0
VERTEX
  8
0
  5
40D
 10
3107.89
 20
1833.39
 30
0.000000
  70
    32
  0
VERTEX
  8
0
  5
40E
 10
3107.87
 20
1833.37
 30
0.000000
  70
    32
  0
VERTEX
  8
0
  5
40F
 10
3107.86
 20
1833.34
 30
0.000000
  70
    32
  0
VERTEX
  8
0
  5
410
 10
3107.85
 20
1833.32
 30
0.000000
  70
    32
  0
VERTEX
  8
0
  5
411
 10
3107.83
 20
1833.29
 30
0.000000
  70
    32
  0
VERTEX
  8
0
  5
412
 10
3107.82
 20
1833.26
 30
0.000000
  70
    32
  0
VERTEX
  8
0
  5
413
 10
3107.80
 20
1833.24
 30
0.000000
  70
    32
  0
VERTEX
  8
0
  5
414
 10
3107.79
 20
1833.21
 30
0.000000
  70
    32
  0
VERTEX
  8
0
  5
415
 10
3107.78
 20
1833.19
 30
0.000000
  70
    32
  0
VERTEX
  8
0
  5
416
 10
3107.76
 20
1833.16
 30
0.000000
  70
    32
  0
VERTEX
  8
0
  5
417
 10
3107.75
 20
1833.13
 30
0.000000
  70
    32
  0
VERTEX
  8
0
  5
418
 10
3107.73
 20
1833.11
 30
0.000000
  70
    32
  0
SEQEND
  8
0
  5
419
  0
POLYLINE
  8
0
  5
41A
  66
     1
 10
0.000000
 20
0.000000
 30
0.000000
  70
     8
  0
VERTEX
  8
0
  5
41B
 10
3107.73
 20
1833.11
 30
0.000000
  70
    32
  0
VERTEX
  8
0
  5
41C
 10
3107.70
 20
1833.05
 30
0.000000
  70
    32
  0
VERTEX
  8
0
  5
41D
 10
3107.67
 20
1833.00
 30
0.000000
  70
    32
  0
VERTEX
  8
0
  5
41E
 10
3107.64
 20
1832.95
 30
0.000000
  70
    32
  0
VERTEX
  8
0
  5
41F
 10
3107.61
 20
1832.90
 30
0.000000
  70
    32
  0
VERTEX
  8
0
  5
420
 10
3107.58
 20
1832.84
 30
0.000000
  70
    32
  0
VERTEX
  8
0
  5
421
 10
3107.55
 20
1832.79
 30
0.000000
  70
    32
  0
VERTEX
  8
0
  5
422
 10
3107.51
 20
1832.74
 30
0.000000
  70
    32
  0
VERTEX
  8
0
  5
423
 10
3107.48
 20
1832.69
 30
0.000000
  70
    32
  0
VERTEX
  8
0
  5
424
 10
3107.45
 20
1832.63
 30
0.000000
  70
    32
  0
VERTEX
  8
0
  5
425
 10
3107.42
 20
1832.58
 30
0.000000
  70
    32
  0
VERTEX
  8
0
  5
426
 10
3107.38
 20
1832.53
 30
0.000000
  70
    32
  0
VERTEX
  8
0
  5
427
 10
3107.35
 20
1832.48
 30
0.000000
  70
    32
  0
VERTEX
  8
0
  5
428
 10
3107.32
 20
1832.43
 30
0.000000
  70
    32
  0
VERTEX
  8
0
  5
429
 10
3107.28
 20
1832.38
 30
0.000000
  70
    32
  0
VERTEX
  8
0
  5
42A
 10
3107.25
 20
1832.33
 30
0.000000
  70
    32
  0
VERTEX
  8
0
  5
42B
 10
3107.21
 20
1832.27
 30
0.000000
  70
    32
  0
VERTEX
  8
0
  5
42C
 10
3107.18
 20
1832.22
 30
0.000000
  70
    32
  0
VERTEX
  8
0
  5
42D
 10
3107.14
 20
1832.17
 30
0.000000
  70
    32
  0
VERTEX
  8
0
  5
42E
 10
3107.11
 20
1832.12
 30
0.000000
  70
    32
  0
VERTEX
  8
0
  5
42F
 10
3107.07
 20
1832.07
 30
0.000000
  70
    32
  0
VERTEX
  8
0
  5
430
 10
3107.03
 20
1832.02
 30
0.000000
  70
    32
  0
VERTEX
  8
0
  5
431
 10
3107.00
 20
1831.97
 30
0.000000
  70
    32
  0
VERTEX
  8
0
  5
432
 10
3106.96
 20
1831.92
 30
0.000000
  70
    32
  0
VERTEX
  8
0
  5
433
 10
3106.92
 20
1831.88
 30
0.000000
  70
    32
  0
VERTEX
  8
0
  5
434
 10
3106.89
 20
1831.83
 30
0.000000
  70
    32
  0
VERTEX
  8
0
  5
435
 10
3106.85
 20
1831.78
 30
0.000000
  70
    32
  0
VERTEX
  8
0
  5
436
 10
3106.81
 20
1831.73
 30
0.000000
  70
    32
  0
VERTEX
  8
0
  5
437
 10
3106.77
 20
1831.68
 30
0.000000
  70
    32
  0
VERTEX
  8
0
  5
438
 10
3106.73
 20
1831.63
 30
0.000000
  70
    32
  0
VERTEX
  8
0
  5
439
 10
3106.70
 20
1831.58
 30
0.000000
  70
    32
  0
VERTEX
  8
0
  5
43A
 10
3106.66
 20
1831.54
 30
0.000000
  70
    32
  0
VERTEX
  8
0
  5
43B
 10
3106.62
 20
1831.49
 30
0.000000
  70
    32
  0
VERTEX
  8
0
  5
43C
 10
3106.58
 20
1831.44
 30
0.000000
  70
    32
  0
VERTEX
  8
0
  5
43D
 10
3106.54
 20
1831.40
 30
0.000000
  70
    32
  0
VERTEX
  8
0
  5
43E
 10
3106.50
 20
1831.35
 30
0.000000
  70
    32
  0
VERTEX
  8
0
  5
43F
 10
3106.46
 20
1831.30
 30
0.000000
  70
    32
  0
VERTEX
  8
0
  5
440
 10
3106.42
 20
1831.25
 30
0.000000
  70
    32
  0
VERTEX
  8
0
  5
441
 10
3106.38
 20
1831.21
 30
0.000000
  70
    32
  0
VERTEX
  8
0
  5
442
 10
3106.34
 20
1831.16
 30
0.000000
  70
    32
  0
VERTEX
  8
0
  5
443
 10
3106.30
 20
1831.12
 30
0.000000
  70
    32
  0
VERTEX
  8
0
  5
444
 10
3106.26
 20
1831.07
 30
0.000000
  70
    32
  0
VERTEX
  8
0
  5
445
 10
3106.22
 20
1831.03
 30
0.000000
  70
    32
  0
VERTEX
  8
0
  5
446
 10
3106.17
 20
1830.98
 30
0.000000
  70
    32
  0
VERTEX
  8
0
  5
447
 10
3106.13
 20
1830.93
 30
0.000000
  70
    32
  0
VERTEX
  8
0
  5
448
 10
3106.09
 20
1830.89
 30
0.000000
  70
    32
  0
VERTEX
  8
0
  5
449
 10
3106.05
 20
1830.85
 30
0.000000
  70
    32
  0
VERTEX
  8
0
  5
44A
 10
3106.01
 20
1830.80
 30
0.000000
  70
    32
  0
VERTEX
  8
0
  5
44B
 10
3105.96
 20
1830.76
 30
0.000000
  70
    32
  0
VERTEX
  8
0
  5
44C
 10
3105.92
 20
1830.71
 30
0.000000
  70
    32
  0
VERTEX
  8
0
  5
44D
 10
3105.88
 20
1830.67
 30
0.000000
  70
    32
  0
VERTEX
  8
0
  5
44E
 10
3105.83
 20
1830.63
 30
0.000000
  70
    32
  0
VERTEX
  8
0
  5
44F
 10
3105.79
 20
1830.58
 30
0.000000
  70
    32
  0
VERTEX
  8
0
  5
450
 10
3105.75
 20
1830.54
 30
0.000000
  70
    32
  0
VERTEX
  8
0
  5
451
 10
3105.70
 20
1830.50
 30
0.000000
  70
    32
  0
VERTEX
  8
0
  5
452
 10
3105.66
 20
1830.45
 30
0.000000
  70
    32
  0
VERTEX
  8
0
  5
453
 10
3105.61
 20
1830.41
 30
0.000000
  70
    32
  0
VERTEX
  8
0
  5
454
 10
3105.57
 20
1830.37
 30
0.000000
  70
    32
  0
VERTEX
  8
0
  5
455
 10
3105.52
 20
1830.33
 30
0.000000
  70
    32
  0
VERTEX
  8
0
  5
456
 10
3105.48
 20
1830.28
 30
0.000000
  70
    32
  0
VERTEX
  8
0
  5
457
 10
3105.43
 20
1830.24
 30
0.000000
  70
    32
  0
VERTEX
  8
0
  5
458
 10
3105.39
 20
1830.20
 30
0.000000
  70
    32
  0
VERTEX
  8
0
  5
459
 10
3105.34
 20
1830.16
 30
0.000000
  70
    32
  0
VERTEX
  8
0
  5
45A
 10
3105.30
 20
1830.12
 30
0.000000
  70
    32
  0
VERTEX
  8
0
  5
45B
 10
3105.25
 20
1830.08
 30
0.000000
  70
    32
  0
VERTEX
  8
0
  5
45C
 10
3105.21
 20
1830.04
 30
0.000000
  70
    32
  0
VERTEX
  8
0
  5
45D
 10
3105.16
 20
1830.00
 30
0.000000
  70
    32
  0
VERTEX
  8
0
  5
45E
 10
3105.11
 20
1829.95
 30
0.000000
  70
    32
  0
VERTEX
  8
0
  5
45F
 10
3105.07
 20
1829.91
 30
0.000000
  70
    32
  0
VERTEX
  8
0
  5
460
 10
3105.02
 20
1829.87
 30
0.000000
  70
    32
  0
VERTEX
  8
0
  5
461
 10
3104.97
 20
1829.83
 30
0.000000
  70
    32
  0
VERTEX
  8
0
  5
462
 10
3104.93
 20
1829.80
 30
0.000000
  70
    32
  0
VERTEX
  8
0
  5
463
 10
3104.88
 20
1829.76
 30
0.000000
  70
    32
  0
VERTEX
  8
0
  5
464
 10
3104.83
 20
1829.72
 30
0.000000
  70
    32
  0
VERTEX
  8
0
  5
465
 10
3104.78
 20
1829.68
 30
0.000000
  70
    32
  0
VERTEX
  8
0
  5
466
 10
3104.74
 20
1829.64
 30
0.000000
  70
    32
  0
VERTEX
  8
0
  5
467
 10
3104.69
 20
1829.60
 30
0.000000
  70
    32
  0
VERTEX
  8
0
  5
468
 10
3104.64
 20
1829.56
 30
0.000000
  70
    32
  0
VERTEX
  8
0
  5
469
 10
3104.59
 20
1829.52
 30
0.000000
  70
    32
  0
VERTEX
  8
0
  5
46A
 10
3104.54
 20
1829.49
 30
0.000000
  70
    32
  0
VERTEX
  8
0
  5
46B
 10
3104.50
 20
1829.45
 30
0.000000
  70
    32
  0
VERTEX
  8
0
  5
46C
 10
3104.45
 20
1829.41
 30
0.000000
  70
    32
  0
VERTEX
  8
0
  5
46D
 10
3104.40
 20
1829.37
 30
0.000000
  70
    32
  0
VERTEX
  8
0
  5
46E
 10
3104.35
 20
1829.34
 30
0.000000
  70
    32
  0
VERTEX
  8
0
  5
46F
 10
3104.30
 20
1829.30
 30
0.000000
  70
    32
  0
VERTEX
  8
0
  5
470
 10
3104.25
 20
1829.26
 30
0.000000
  70
    32
  0
VERTEX
  8
0
  5
471
 10
3104.20
 20
1829.23
 30
0.000000
  70
    32
  0
VERTEX
  8
0
  5
472
 10
3104.15
 20
1829.19
 30
0.000000
  70
    32
  0
VERTEX
  8
0
  5
473
 10
3104.10
 20
1829.15
 30
0.000000
  70
    32
  0
VERTEX
  8
0
  5
474
 10
3104.05
 20
1829.12
 30
0.000000
  70
    32
  0
VERTEX
  8
0
  5
475
 10
3104.00
 20
1829.08
 30
0.000000
  70
    32
  0
VERTEX
  8
0
  5
476
 10
3103.95
 20
1829.05
 30
0.000000
  70
    32
  0
VERTEX
  8
0
  5
477
 10
3103.90
 20
1829.01
 30
0.000000
  70
    32
  0
VERTEX
  8
0
  5
478
 10
3103.85
 20
1828.98
 30
0.000000
  70
    32
  0
VERTEX
  8
0
  5
479
 10
3103.80
 20
1828.94
 30
0.000000
  70
    32
  0
VERTEX
  8
0
  5
47A
 10
3103.75
 20
1828.91
 30
0.000000
  70
    32
  0
VERTEX
  8
0
  5
47B
 10
3103.70
 20
1828.87
 30
0.000000
  70
    32
  0
VERTEX
  8
0
  5
47C
 10
3103.65
 20
1828.84
 30
0.000000
  70
    32
  0
VERTEX
  8
0
  5
47D
 10
3103.60
 20
1828.80
 30
0.000000
  70
    32
  0
VERTEX
  8
0
  5
47E
 10
3103.55
 20
1828.77
 30
0.000000
  70
    32
  0
VERTEX
  8
0
  5
47F
 10
3103.49
 20
1828.74
 30
0.000000
  70
    32
  0
VERTEX
  8
0
  5
480
 10
3103.44
 20
1828.70
 30
0.000000
  70
    32
  0
VERTEX
  8
0
  5
481
 10
3103.39
 20
1828.67
 30
0.000000
  70
    32
  0
VERTEX
  8
0
  5
482
 10
3103.34
 20
1828.64
 30
0.000000
  70
    32
  0
VERTEX
  8
0
  5
483
 10
3103.29
 20
1828.60
 30
0.000000
  70
    32
  0
VERTEX
  8
0
  5
484
 10
3103.24
 20
1828.57
 30
0.000000
  70
    32
  0
VERTEX
  8
0
  5
485
 10
3103.18
 20
1828.54
 30
0.000000
  70
    32
  0
VERTEX
  8
0
  5
486
 10
3103.13
 20
1828.51
 30
0.000000
  70
    32
  0
VERTEX
  8
0
  5
487
 10
3103.08
 20
1828.47
 30
0.000000
  70
    32
  0
VERTEX
  8
0
  5
488
 10
3103.03
 20
1828.44
 30
0.000000
  70
    32
  0
VERTEX
  8
0
  5
489
 10
3102.97
 20
1828.41
 30
0.000000
  70
    32
  0
VERTEX
  8
0
  5
48A
 10
3102.92
 20
1828.38
 30
0.000000
  70
    32
  0
VERTEX
  8
0
  5
48B
 10
3102.87
 20
1828.35
 30
0.000000
  70
    32
  0
VERTEX
  8
0
  5
48C
 10
3102.81
 20
1828.32
 30
0.000000
  70
    32
  0
VERTEX
  8
0
  5
48D
 10
3102.76
 20
1828.29
 30
0.000000
  70
    32
  0
VERTEX
  8
0
  5
48E
 10
3102.71
 20
1828.26
 30
0.000000
  70
    32
  0
VERTEX
  8
0
  5
48F
 10
3102.65
 20
1828.23
 30
0.000000
  70
    32
  0
VERTEX
  8
0
  5
490
 10
3102.60
 20
1828.19
 30
0.000000
  70
    32
  0
VERTEX
  8
0
  5
491
 10
3102.55
 20
1828.16
 30
0.000000
  70
    32
  0
VERTEX
  8
0
  5
492
 10
3102.49
 20
1828.13
 30
0.000000
  70
    32
  0
VERTEX
  8
0
  5
493
 10
3102.44
 20
1828.11
 30
0.000000
  70
    32
  0
VERTEX
  8
0
  5
494
 10
3102.39
 20
1828.08
 30
0.000000
  70
    32
  0
VERTEX
  8
0
  5
495
 10
3102.33
 20
1828.05
 30
0.000000
  70
    32
  0
VERTEX
  8
0
  5
496
 10
3102.28
 20
1828.02
 30
0.000000
  70
    32
  0
VERTEX
  8
0
  5
497
 10
3102.22
 20
1827.99
 30
0.000000
  70
    32
  0
VERTEX
  8
0
  5
498
 10
3102.17
 20
1827.96
 30
0.000000
  70
    32
  0
VERTEX
  8
0
  5
499
 10
3102.12
 20
1827.93
 30
0.000000
  70
    32
  0
VERTEX
  8
0
  5
49A
 10
3102.06
 20
1827.90
 30
0.000000
  70
    32
  0
VERTEX
  8
0
  5
49B
 10
3102.01
 20
1827.87
 30
0.000000
  70
    32
  0
VERTEX
  8
0
  5
49C
 10
3101.95
 20
1827.85
 30
0.000000
  70
    32
  0
VERTEX
  8
0
  5
49D
 10
3101.90
 20
1827.82
 30
0.000000
  70
    32
  0
VERTEX
  8
0
  5
49E
 10
3101.84
 20
1827.79
 30
0.000000
  70
    32
  0
VERTEX
  8
0
  5
49F
 10
3101.79
 20
1827.76
 30
0.000000
  70
    32
  0
VERTEX
  8
0
  5
4A0
 10
3101.73
 20
1827.74
 30
0.000000
  70
    32
  0
VERTEX
  8
0
  5
4A1
 10
3101.68
 20
1827.71
 30
0.000000
  70
    32
  0
VERTEX
  8
0
  5
4A2
 10
3101.62
 20
1827.68
 30
0.000000
  70
    32
  0
VERTEX
  8
0
  5
4A3
 10
3101.57
 20
1827.66
 30
0.000000
  70
    32
  0
VERTEX
  8
0
  5
4A4
 10
3101.51
 20
1827.63
 30
0.000000
  70
    32
  0
VERTEX
  8
0
  5
4A5
 10
3101.46
 20
1827.60
 30
0.000000
  70
    32
  0
VERTEX
  8
0
  5
4A6
 10
3101.40
 20
1827.58
 30
0.000000
  70
    32
  0
VERTEX
  8
0
  5
4A7
 10
3101.34
 20
1827.55
 30
0.000000
  70
    32
  0
VERTEX
  8
0
  5
4A8
 10
3101.29
 20
1827.52
 30
0.000000
  70
    32
  0
VERTEX
  8
0
  5
4A9
 10
3101.23
 20
1827.50
 30
0.000000
  70
    32
  0
VERTEX
  8
0
  5
4AA
 10
3101.18
 20
1827.47
 30
0.000000
  70
    32
  0
VERTEX
  8
0
  5
4AB
 10
3101.12
 20
1827.45
 30
0.000000
  70
    32
  0
VERTEX
  8
0
  5
4AC
 10
3101.06
 20
1827.42
 30
0.000000
  70
    32
  0
VERTEX
  8
0
  5
4AD
 10
3101.01
 20
1827.40
 30
0.000000
  70
    32
  0
VERTEX
  8
0
  5
4AE
 10
3100.95
 20
1827.37
 30
0.000000
  70
    32
  0
VERTEX
  8
0
  5
4AF
 10
3100.89
 20
1827.35
 30
0.000000
  70
    32
  0
VERTEX
  8
0
  5
4B0
 10
3100.84
 20
1827.33
 30
0.000000
  70
    32
  0
VERTEX
  8
0
  5
4B1
 10
3100.78
 20
1827.30
 30
0.000000
  70
    32
  0
VERTEX
  8
0
  5
4B2
 10
3100.73
 20
1827.28
 30
0.000000
  70
    32
  0
VERTEX
  8
0
  5
4B3
 10
3100.67
 20
1827.25
 30
0.000000
  70
    32
  0
VERTEX
  8
0
  5
4B4
 10
3100.61
 20
1827.23
 30
0.000000
  70
    32
  0
VERTEX
  8
0
  5
4B5
 10
3100.55
 20
1827.21
 30
0.000000
  70
    32
  0
VERTEX
  8
0
  5
4B6
 10
3100.50
 20
1827.18
 30
0.000000
  70
    32
  0
VERTEX
  8
0
  5
4B7
 10
3100.44
 20
1827.16
 30
0.000000
  70
    32
  0
VERTEX
  8
0
  5
4B8
 10
3100.38
 20
1827.14
 30
0.000000
  70
    32
  0
VERTEX
  8
0
  5
4B9
 10
3100.33
 20
1827.12
 30
0.000000
  70
    32
  0
VERTEX
  8
0
  5
4BA
 10
3100.27
 20
1827.09
 30
0.000000
  70
    32
  0
VERTEX
  8
0
  5
4BB
 10
3100.21
 20
1827.07
 30
0.000000
  70
    32
  0
VERTEX
  8
0
  5
4BC
 10
3100.15
 20
1827.05
 30
0.000000
  70
    32
  0
VERTEX
  8
0
  5
4BD
 10
3100.10
 20
1827.03
 30
0.000000
  70
    32
  0
VERTEX
  8
0
  5
4BE
 10
3100.04
 20
1827.00
 30
0.000000
  70
    32
  0
VERTEX
  8
0
  5
4BF
 10
3099.98
 20
1826.98
 30
0.000000
  70
    32
  0
VERTEX
  8
0
  5
4C0
 10
3099.92
 20
1826.96
 30
0.000000
  70
    32
  0
VERTEX
  8
0
  5
4C1
 10
3099.87
 20
1826.94
 30
0.000000
  70
    32
  0
VERTEX
  8
0
  5
4C2
 10
3099.81
 20
1826.92
 30
0.000000
  70
    32
  0
VERTEX
  8
0
  5
4C3
 10
3099.75
 20
1826.90
 30
0.000000
  70
    32
  0
VERTEX
  8
0
  5
4C4
 10
3099.69
 20
1826.88
 30
0.000000
  70
    32
  0
VERTEX
  8
0
  5
4C5
 10
3099.63
 20
1826.86
 30
0.000000
  70
    32
  0
VERTEX
  8
0
  5
4C6
 10
3099.58
 20
1826.84
 30
0.000000
  70
    32
  0
VERTEX
  8
0
  5
4C7
 10
3099.52
 20
1826.82
 30
0.000000
  70
    32
  0
VERTEX
  8
0
  5
4C8
 10
3099.46
 20
1826.80
 30
0.000000
  70
    32
  0
VERTEX
  8
0
  5
4C9
 10
3099.40
 20
1826.78
 30
0.000000
  70
    32
  0
VERTEX
  8
0
  5
4CA
 10
3099.34
 20
1826.76
 30
0.000000
  70
    32
  0
VERTEX
  8
0
  5
4CB
 10
3099.28
 20
1826.74
 30
0.000000
  70
    32
  0
VERTEX
  8
0
  5
4CC
 10
3099.23
 20
1826.72
 30
0.000000
  70
    32
  0
VERTEX
  8
0
  5
4CD
 10
3099.17
 20
1826.70
 30
0.000000
  70
    32
  0
VERTEX
  8
0
  5
4CE
 10
3099.11
 20
1826.68
 30
0.000000
  70
    32
  0
VERTEX
  8
0
  5
4CF
 10
3099.05
 20
1826.66
 30
0.000000
  70
    32
  0
VERTEX
  8
0
  5
4D0
 10
3098.99
 20
1826.65
 30
0.000000
  70
    32
  0
VERTEX
  8
0
  5
4D1
 10
3098.93
 20
1826.63
 30
0.000000
  70
    32
  0
VERTEX
  8
0
  5
4D2
 10
3098.87
 20
1826.61
 30
0.000000
  70
    32
  0
VERTEX
  8
0
  5
4D3
 10
3098.82
 20
1826.59
 30
0.000000
  70
    32
  0
VERTEX
  8
0
  5
4D4
 10
3098.76
 20
1826.57
 30
0.000000
  70
    32
  0
VERTEX
  8
0
  5
4D5
 10
3098.70
 20
1826.56
 30
0.000000
  70
    32
  0
VERTEX
  8
0
  5
4D6
 10
3098.64
 20
1826.54
 30
0.000000
  70
    32
  0
VERTEX
  8
0
  5
4D7
 10
3098.58
 20
1826.52
 30
0.000000
  70
    32
  0
VERTEX
  8
0
  5
4D8
 10
3098.52
 20
1826.50
 30
0.000000
  70
    32
  0
VERTEX
  8
0
  5
4D9
 10
3098.46
 20
1826.49
 30
0.000000
  70
    32
  0
VERTEX
  8
0
  5
4DA
 10
3098.40
 20
1826.47
 30
0.000000
  70
    32
  0
VERTEX
  8
0
  5
4DB
 10
3098.34
 20
1826.45
 30
0.000000
  70
    32
  0
VERTEX
  8
0
  5
4DC
 10
3098.28
 20
1826.44
 30
0.000000
  70
    32
  0
VERTEX
  8
0
  5
4DD
 10
3098.22
 20
1826.42
 30
0.000000
  70
    32
  0
VERTEX
  8
0
  5
4DE
 10
3098.16
 20
1826.41
 30
0.000000
  70
    32
  0
VERTEX
  8
0
  5
4DF
 10
3098.10
 20
1826.39
 30
0.000000
  70
    32
  0
VERTEX
  8
0
  5
4E0
 10
3098.04
 20
1826.37
 30
0.000000
  70
    32
  0
VERTEX
  8
0
  5
4E1
 10
3097.98
 20
1826.36
 30
0.000000
  70
    32
  0
VERTEX
  8
0
  5
4E2
 10
3097.93
 20
1826.34
 30
0.000000
  70
    32
  0
VERTEX
  8
0
  5
4E3
 10
3097.87
 20
1826.33
 30
0.000000
  70
    32
  0
VERTEX
  8
0
  5
4E4
 10
3097.81
 20
1826.31
 30
0.000000
  70
    32
  0
VERTEX
  8
0
  5
4E5
 10
3097.75
 20
1826.30
 30
0.000000
  70
    32
  0
VERTEX
  8
0
  5
4E6
 10
3097.69
 20
1826.28
 30
0.000000
  70
    32
  0
VERTEX
  8
0
  5
4E7
 10
3097.63
 20
1826.27
 30
0.000000
  70
    32
  0
VERTEX
  8
0
  5
4E8
 10
3097.57
 20
1826.26
 30
0.000000
  70
    32
  0
VERTEX
  8
0
  5
4E9
 10
3097.51
 20
1826.24
 30
0.000000
  70
    32
  0
VERTEX
  8
0
  5
4EA
 10
3097.45
 20
1826.23
 30
0.000000
  70
    32
  0
VERTEX
  8
0
  5
4EB
 10
3097.39
 20
1826.21
 30
0.000000
  70
    32
  0
VERTEX
  8
0
  5
4EC
 10
3097.33
 20
1826.20
 30
0.000000
  70
    32
  0
VERTEX
  8
0
  5
4ED
 10
3097.27
 20
1826.19
 30
0.000000
  70
    32
  0
VERTEX
  8
0
  5
4EE
 10
3097.21
 20
1826.17
 30
0.000000
  70
    32
  0
VERTEX
  8
0
  5
4EF
 10
3097.15
 20
1826.16
 30
0.000000
  70
    32
  0
VERTEX
  8
0
  5
4F0
 10
3097.09
 20
1826.15
 30
0.000000
  70
    32
  0
VERTEX
  8
0
  5
4F1
 10
3097.03
 20
1826.13
 30
0.000000
  70
    32
  0
VERTEX
  8
0
  5
4F2
 10
3096.96
 20
1826.12
 30
0.000000
  70
    32
  0
VERTEX
  8
0
  5
4F3
 10
3096.90
 20
1826.11
 30
0.000000
  70
    32
  0
VERTEX
  8
0
  5
4F4
 10
3096.84
 20
1826.10
 30
0.000000
  70
    32
  0
VERTEX
  8
0
  5
4F5
 10
3096.78
 20
1826.09
 30
0.000000
  70
    32
  0
VERTEX
  8
0
  5
4F6
 10
3096.72
 20
1826.07
 30
0.000000
  70
    32
  0
VERTEX
  8
0
  5
4F7
 10
3096.66
 20
1826.06
 30
0.000000
  70
    32
  0
VERTEX
  8
0
  5
4F8
 10
3096.60
 20
1826.05
 30
0.000000
  70
    32
  0
VERTEX
  8
0
  5
4F9
 10
3096.54
 20
1826.04
 30
0.000000
  70
    32
  0
VERTEX
  8
0
  5
4FA
 10
3096.48
 20
1826.03
 30
0.000000
  70
    32
  0
VERTEX
  8
0
  5
4FB
 10
3096.42
 20
1826.02
 30
0.000000
  70
    32
  0
VERTEX
  8
0
  5
4FC
 10
3096.36
 20
1826.01
 30
0.000000
  70
    32
  0
VERTEX
  8
0
  5
4FD
 10
3096.30
 20
1826.00
 30
0.000000
  70
    32
  0
VERTEX
  8
0
  5
4FE
 10
3096.24
 20
1825.99
 30
0.000000
  70
    32
  0
VERTEX
  8
0
  5
4FF
 10
3096.18
 20
1825.98
 30
0.000000
  70
    32
  0
VERTEX
  8
0
  5
500
 10
3096.12
 20
1825.97
 30
0.000000
  70
    32
  0
VERTEX
  8
0
  5
501
 10
3096.06
 20
1825.96
 30
0.000000
  70
    32
  0
VERTEX
  8
0
  5
502
 10
3096.00
 20
1825.95
 30
0.000000
  70
    32
  0
VERTEX
  8
0
  5
503
 10
3095.94
 20
1825.94
 30
0.000000
  70
    32
  0
VERTEX
  8
0
  5
504
 10
3095.87
 20
1825.93
 30
0.000000
  70
    32
  0
VERTEX
  8
0
  5
505
 10
3095.81
 20
1825.92
 30
0.000000
  70
    32
  0
VERTEX
  8
0
  5
506
 10
3095.75
 20
1825.91
 30
0.000000
  70
    32
  0
VERTEX
  8
0
  5
507
 10
3095.69
 20
1825.90
 30
0.000000
  70
    32
  0
VERTEX
  8
0
  5
508
 10
3095.63
 20
1825.89
 30
0.000000
  70
    32
  0
VERTEX
  8
0
  5
509
 10
3095.57
 20
1825.88
 30
0.000000
  70
    32
  0
VERTEX
  8
0
  5
50A
 10
3095.51
 20
1825.87
 30
0.000000
  70
    32
  0
VERTEX
  8
0
  5
50B
 10
3095.45
 20
1825.87
 30
0.000000
  70
    32
  0
VERTEX
  8
0
  5
50C
 10
3095.39
 20
1825.86
 30
0.000000
  70
    32
  0
VERTEX
  8
0
  5
50D
 10
3095.33
 20
1825.85
 30
0.000000
  70
    32
  0
VERTEX
  8
0
  5
50E
 10
3095.26
 20
1825.84
 30
0.000000
  70
    32
  0
VERTEX
  8
0
  5
50F
 10
3095.20
 20
1825.83
 30
0.000000
  70
    32
  0
VERTEX
  8
0
  5
510
 10
3095.14
 20
1825.83
 30
0.000000
  70
    32
  0
VERTEX
  8
0
  5
511
 10
3095.08
 20
1825.82
 30
0.000000
  70
    32
  0
VERTEX
  8
0
  5
512
 10
3095.02
 20
1825.81
 30
0.000000
  70
    32
  0
VERTEX
  8
0
  5
513
 10
3094.96
 20
1825.81
 30
0.000000
  70
    32
  0
VERTEX
  8
0
  5
514
 10
3094.90
 20
1825.80
 30
0.000000
  70
    32
  0
VERTEX
  8
0
  5
515
 10
3094.84
 20
1825.79
 30
0.000000
  70
    32
  0
VERTEX
  8
0
  5
516
 10
3094.78
 20
1825.79
 30
0.000000
  70
    32
  0
VERTEX
  8
0
  5
517
 10
3094.71
 20
1825.78
 30
0.000000
  70
    32
  0
VERTEX
  8
0
  5
518
 10
3094.65
 20
1825.77
 30
0.000000
  70
    32
  0
VERTEX
  8
0
  5
519
 10
3094.59
 20
1825.77
 30
0.000000
  70
    32
  0
VERTEX
  8
0
  5
51A
 10
3094.53
 20
1825.76
 30
0.000000
  70
    32
  0
VERTEX
  8
0
  5
51B
 10
3094.47
 20
1825.76
 30
0.000000
  70
    32
  0
VERTEX
  8
0
  5
51C
 10
3094.41
 20
1825.75
 30
0.000000
  70
    32
  0
VERTEX
  8
0
  5
51D
 10
3094.35
 20
1825.75
 30
0.000000
  70
    32
  0
VERTEX
  8
0
  5
51E
 10
3094.29
 20
1825.74
 30
0.000000
  70
    32
  0
VERTEX
  8
0
  5
51F
 10
3094.22
 20
1825.74
 30
0.000000
  70
    32
  0
VERTEX
  8
0
  5
520
 10
3094.16
 20
1825.73
 30
0.000000
  70
    32
  0
VERTEX
  8
0
  5
521
 10
3094.10
 20
1825.73
 30
0.000000
  70
    32
  0
VERTEX
  8
0
  5
522
 10
3094.04
 20
1825.72
 30
0.000000
  70
    32
  0
VERTEX
  8
0
  5
523
 10
3093.98
 20
1825.72
 30
0.000000
  70
    32
  0
VERTEX
  8
0
  5
524
 10
3093.92
 20
1825.71
 30
0.000000
  70
    32
  0
VERTEX
  8
0
  5
525
 10
3093.86
 20
1825.71
 30
0.000000
  70
    32
  0
VERTEX
  8
0
  5
526
 10
3093.79
 20
1825.71
 30
0.000000
  70
    32
  0
VERTEX
  8
0
  5
527
 10
3093.73
 20
1825.70
 30
0.000000
  70
    32
  0
VERTEX
  8
0
  5
528
 10
3093.67
 20
1825.70
 30
0.000000
  70
    32
  0
VERTEX
  8
0
  5
529
 10
3093.61
 20
1825.70
 30
0.000000
  70
    32
  0
VERTEX
  8
0
  5
52A
 10
3093.55
 20
1825.69
 30
0.000000
  70
    32
  0
VERTEX
  8
0
  5
52B
 10
3093.49
 20
1825.69
 30
0.000000
  70
    32
  0
VERTEX
  8
0
  5
52C
 10
3093.43
 20
1825.69
 30
0.000000
  70
    32
  0
VERTEX
  8
0
  5
52D
 10
3093.36
 20
1825.69
 30
0.000000
  70
    32
  0
VERTEX
  8
0
  5
52E
 10
3093.30
 20
1825.68
 30
0.000000
  70
    32
  0
VERTEX
  8
0
  5
52F
 10
3093.24
 20
1825.68
 30
0.000000
  70
    32
  0
VERTEX
  8
0
  5
530
 10
3093.18
 20
1825.68
 30
0.000000
  70
    32
  0
VERTEX
  8
0
  5
531
 10
3093.12
 20
1825.68
 30
0.000000
  70
    32
  0
VERTEX
  8
0
  5
532
 10
3093.06
 20
1825.67
 30
0.000000
  70
    32
  0
VERTEX
  8
0
  5
533
 10
3093.00
 20
1825.67
 30
0.000000
  70
    32
  0
VERTEX
  8
0
  5
534
 10
3092.93
 20
1825.67
 30
0.000000
  70
    32
  0
VERTEX
  8
0
  5
535
 10
3092.87
 20
1825.67
 30
0.000000
  70
    32
  0
VERTEX
  8
0
  5
536
 10
3092.81
 20
1825.67
 30
0.000000
  70
    32
  0
VERTEX
  8
0
  5
537
 10
3092.75
 20
1825.67
 30
0.000000
  70
    32
  0
VERTEX
  8
0
  5
538
 10
3092.69
 20
1825.67
 30
0.000000
  70
    32
  0
VERTEX
  8
0
  5
539
 10
3092.63
 20
1825.67
 30
0.000000
  70
    32
  0
VERTEX
  8
0
  5
53A
 10
3092.57
 20
1825.67
 30
0.000000
  70
    32
  0
SEQEND
  8
0
  5
53B
  0
POLYLINE
  8
0
  5
53C
  66
     1
 10
0.000000
 20
0.000000
 30
0.000000
  70
     8
  0
VERTEX
  8
0
  5
53D
 10
3104.95
 20
1837.62
 30
0.000000
  70
    32
  0
VERTEX
  8
0
  5
53E
 10
3104.95
 20
1837.57
 30
0.000000
  70
    32
  0
VERTEX
  8
0
  5
53F
 10
3104.95
 20
1837.52
 30
0.000000
  70
    32
  0
VERTEX
  8
0
  5
540
 10
3104.95
 20
1837.48
 30
0.000000
  70
    32
  0
VERTEX
  8
0
  5
541
 10
3104.95
 20
1837.43
 30
0.000000
  70
    32
  0
VERTEX
  8
0
  5
542
 10
3104.95
 20
1837.38
 30
0.000000
  70
    32
  0
VERTEX
  8
0
  5
543
 10
3104.95
 20
1837.33
 30
0.000000
  70
    32
  0
VERTEX
  8
0
  5
544
 10
3104.95
 20
1837.28
 30
0.000000
  70
    32
  0
VERTEX
  8
0
  5
545
 10
3104.94
 20
1837.23
 30
0.000000
  70
    32
  0
VERTEX
  8
0
  5
546
 10
3104.94
 20
1837.18
 30
0.000000
  70
    32
  0
VERTEX
  8
0
  5
547
 10
3104.94
 20
1837.14
 30
0.000000
  70
    32
  0
VERTEX
  8
0
  5
548
 10
3104.93
 20
1837.09
 30
0.000000
  70
    32
  0
VERTEX
  8
0
  5
549
 10
3104.93
 20
1837.04
 30
0.000000
  70
    32
  0
VERTEX
  8
0
  5
54A
 10
3104.92
 20
1836.99
 30
0.000000
  70
    32
  0
VERTEX
  8
0
  5
54B
 10
3104.92
 20
1836.94
 30
0.000000
  70
    32
  0
VERTEX
  8
0
  5
54C
 10
3104.91
 20
1836.89
 30
0.000000
  70
    32
  0
VERTEX
  8
0
  5
54D
 10
3104.91
 20
1836.85
 30
0.000000
  70
    32
  0
VERTEX
  8
0
  5
54E
 10
3104.90
 20
1836.80
 30
0.000000
  70
    32
  0
VERTEX
  8
0
  5
54F
 10
3104.90
 20
1836.75
 30
0.000000
  70
    32
  0
VERTEX
  8
0
  5
550
 10
3104.89
 20
1836.70
 30
0.000000
  70
    32
  0
VERTEX
  8
0
  5
551
 10
3104.88
 20
1836.65
 30
0.000000
  70
    32
  0
VERTEX
  8
0
  5
552
 10
3104.87
 20
1836.61
 30
0.000000
  70
    32
  0
VERTEX
  8
0
  5
553
 10
3104.87
 20
1836.56
 30
0.000000
  70
    32
  0
VERTEX
  8
0
  5
554
 10
3104.86
 20
1836.51
 30
0.000000
  70
    32
  0
VERTEX
  8
0
  5
555
 10
3104.85
 20
1836.46
 30
0.000000
  70
    32
  0
VERTEX
  8
0
  5
556
 10
3104.84
 20
1836.41
 30
0.000000
  70
    32
  0
VERTEX
  8
0
  5
557
 10
3104.83
 20
1836.37
 30
0.000000
  70
    32
  0
VERTEX
  8
0
  5
558
 10
3104.82
 20
1836.32
 30
0.000000
  70
    32
  0
VERTEX
  8
0
  5
559
 10
3104.81
 20
1836.27
 30
0.000000
  70
    32
  0
VERTEX
  8
0
  5
55A
 10
3104.80
 20
1836.22
 30
0.000000
  70
    32
  0
VERTEX
  8
0
  5
55B
 10
3104.79
 20
1836.18
 30
0.000000
  70
    32
  0
VERTEX
  8
0
  5
55C
 10
3104.78
 20
1836.13
 30
0.000000
  70
    32
  0
VERTEX
  8
0
  5
55D
 10
3104.77
 20
1836.08
 30
0.000000
  70
    32
  0
VERTEX
  8
0
  5
55E
 10
3104.76
 20
1836.03
 30
0.000000
  70
    32
  0
VERTEX
  8
0
  5
55F
 10
3104.75
 20
1835.99
 30
0.000000
  70
    32
  0
VERTEX
  8
0
  5
560
 10
3104.74
 20
1835.94
 30
0.000000
  70
    32
  0
VERTEX
  8
0
  5
561
 10
3104.72
 20
1835.89
 30
0.000000
  70
    32
  0
VERTEX
  8
0
  5
562
 10
3104.71
 20
1835.84
 30
0.000000
  70
    32
  0
VERTEX
  8
0
  5
563
 10
3104.70
 20
1835.80
 30
0.000000
  70
    32
  0
VERTEX
  8
0
  5
564
 10
3104.68
 20
1835.75
 30
0.000000
  70
    32
  0
VERTEX
  8
0
  5
565
 10
3104.67
 20
1835.70
 30
0.000000
  70
    32
  0
VERTEX
  8
0
  5
566
 10
3104.66
 20
1835.66
 30
0.000000
  70
    32
  0
VERTEX
  8
0
  5
567
 10
3104.64
 20
1835.61
 30
0.000000
  70
    32
  0
VERTEX
  8
0
  5
568
 10
3104.63
 20
1835.57
 30
0.000000
  70
    32
  0
VERTEX
  8
0
  5
569
 10
3104.61
 20
1835.52
 30
0.000000
  70
    32
  0
VERTEX
  8
0
  5
56A
 10
3104.60
 20
1835.47
 30
0.000000
  70
    32
  0
VERTEX
  8
0
  5
56B
 10
3104.58
 20
1835.43
 30
0.000000
  70
    32
  0
VERTEX
  8
0
  5
56C
 10
3104.57
 20
1835.38
 30
0.000000
  70
    32
  0
VERTEX
  8
0
  5
56D
 10
3104.55
 20
1835.34
 30
0.000000
  70
    32
  0
VERTEX
  8
0
  5
56E
 10
3104.53
 20
1835.29
 30
0.000000
  70
    32
  0
VERTEX
  8
0
  5
56F
 10
3104.52
 20
1835.24
 30
0.000000
  70
    32
  0
VERTEX
  8
0
  5
570
 10
3104.50
 20
1835.20
 30
0.000000
  70
    32
  0
VERTEX
  8
0
  5
571
 10
3104.48
 20
1835.15
 30
0.000000
  70
    32
  0
VERTEX
  8
0
  5
572
 10
3104.46
 20
1835.11
 30
0.000000
  70
    32
  0
VERTEX
  8
0
  5
573
 10
3104.44
 20
1835.06
 30
0.000000
  70
    32
  0
VERTEX
  8
0
  5
574
 10
3104.43
 20
1835.02
 30
0.000000
  70
    32
  0
VERTEX
  8
0
  5
575
 10
3104.41
 20
1834.97
 30
0.000000
  70
    32
  0
VERTEX
  8
0
  5
576
 10
3104.39
 20
1834.93
 30
0.000000
  70
    32
  0
VERTEX
  8
0
  5
577
 10
3104.37
 20
1834.88
 30
0.000000
  70
    32
  0
VERTEX
  8
0
  5
578
 10
3104.35
 20
1834.84
 30
0.000000
  70
    32
  0
VERTEX
  8
0
  5
579
 10
3104.33
 20
1834.80
 30
0.000000
  70
    32
  0
VERTEX
  8
0
  5
57A
 10
3104.31
 20
1834.75
 30
0.000000
  70
    32
  0
VERTEX
  8
0
  5
57B
 10
3104.29
 20
1834.71
 30
0.000000
  70
    32
  0
VERTEX
  8
0
  5
57C
 10
3104.27
 20
1834.66
 30
0.000000
  70
    32
  0
VERTEX
  8
0
  5
57D
 10
3104.25
 20
1834.62
 30
0.000000
  70
    32
  0
VERTEX
  8
0
  5
57E
 10
3104.23
 20
1834.58
 30
0.000000
  70
    32
  0
VERTEX
  8
0
  5
57F
 10
3104.20
 20
1834.53
 30
0.000000
  70
    32
  0
VERTEX
  8
0
  5
580
 10
3104.18
 20
1834.49
 30
0.000000
  70
    32
  0
VERTEX
  8
0
  5
581
 10
3104.16
 20
1834.45
 30
0.000000
  70
    32
  0
VERTEX
  8
0
  5
582
 10
3104.14
 20
1834.40
 30
0.000000
  70
    32
  0
VERTEX
  8
0
  5
583
 10
3104.12
 20
1834.36
 30
0.000000
  70
    32
  0
VERTEX
  8
0
  5
584
 10
3104.09
 20
1834.32
 30
0.000000
  70
    32
  0
VERTEX
  8
0
  5
585
 10
3104.07
 20
1834.27
 30
0.000000
  70
    32
  0
VERTEX
  8
0
  5
586
 10
3104.05
 20
1834.23
 30
0.000000
  70
    32
  0
VERTEX
  8
0
  5
587
 10
3104.02
 20
1834.19
 30
0.000000
  70
    32
  0
VERTEX
  8
0
  5
588
 10
3104.00
 20
1834.15
 30
0.000000
  70
    32
  0
VERTEX
  8
0
  5
589
 10
3103.97
 20
1834.10
 30
0.000000
  70
    32
  0
VERTEX
  8
0
  5
58A
 10
3103.95
 20
1834.06
 30
0.000000
  70
    32
  0
VERTEX
  8
0
  5
58B
 10
3103.92
 20
1834.02
 30
0.000000
  70
    32
  0
VERTEX
  8
0
  5
58C
 10
3103.90
 20
1833.98
 30
0.000000
  70
    32
  0
VERTEX
  8
0
  5
58D
 10
3103.87
 20
1833.94
 30
0.000000
  70
    32
  0
VERTEX
  8
0
  5
58E
 10
3103.85
 20
1833.90
 30
0.000000
  70
    32
  0
VERTEX
  8
0
  5
58F
 10
3103.82
 20
1833.86
 30
0.000000
  70
    32
  0
VERTEX
  8
0
  5
590
 10
3103.80
 20
1833.81
 30
0.000000
  70
    32
  0
VERTEX
  8
0
  5
591
 10
3103.77
 20
1833.77
 30
0.000000
  70
    32
  0
VERTEX
  8
0
  5
592
 10
3103.74
 20
1833.73
 30
0.000000
  70
    32
  0
VERTEX
  8
0
  5
593
 10
3103.72
 20
1833.69
 30
0.000000
  70
    32
  0
VERTEX
  8
0
  5
594
 10
3103.69
 20
1833.65
 30
0.000000
  70
    32
  0
VERTEX
  8
0
  5
595
 10
3103.66
 20
1833.61
 30
0.000000
  70
    32
  0
VERTEX
  8
0
  5
596
 10
3103.63
 20
1833.57
 30
0.000000
  70
    32
  0
VERTEX
  8
0
  5
597
 10
3103.61
 20
1833.53
 30
0.000000
  70
    32
  0
VERTEX
  8
0
  5
598
 10
3103.58
 20
1833.49
 30
0.000000
  70
    32
  0
VERTEX
  8
0
  5
599
 10
3103.55
 20
1833.45
 30
0.000000
  70
    32
  0
VERTEX
  8
0
  5
59A
 10
3103.52
 20
1833.41
 30
0.000000
  70
    32
  0
VERTEX
  8
0
  5
59B
 10
3103.49
 20
1833.37
 30
0.000000
  70
    32
  0
VERTEX
  8
0
  5
59C
 10
3103.47
 20
1833.34
 30
0.000000
  70
    32
  0
VERTEX
  8
0
  5
59D
 10
3103.44
 20
1833.30
 30
0.000000
  70
    32
  0
VERTEX
  8
0
  5
59E
 10
3103.41
 20
1833.26
 30
0.000000
  70
    32
  0
VERTEX
  8
0
  5
59F
 10
3103.38
 20
1833.22
 30
0.000000
  70
    32
  0
VERTEX
  8
0
  5
5A0
 10
3103.35
 20
1833.18
 30
0.000000
  70
    32
  0
VERTEX
  8
0
  5
5A1
 10
3103.32
 20
1833.14
 30
0.000000
  70
    32
  0
VERTEX
  8
0
  5
5A2
 10
3103.29
 20
1833.10
 30
0.000000
  70
    32
  0
VERTEX
  8
0
  5
5A3
 10
3103.26
 20
1833.07
 30
0.000000
  70
    32
  0
VERTEX
  8
0
  5
5A4
 10
3103.23
 20
1833.03
 30
0.000000
  70
    32
  0
VERTEX
  8
0
  5
5A5
 10
3103.20
 20
1832.99
 30
0.000000
  70
    32
  0
VERTEX
  8
0
  5
5A6
 10
3103.16
 20
1832.95
 30
0.000000
  70
    32
  0
VERTEX
  8
0
  5
5A7
 10
3103.13
 20
1832.92
 30
0.000000
  70
    32
  0
VERTEX
  8
0
  5
5A8
 10
3103.10
 20
1832.88
 30
0.000000
  70
    32
  0
VERTEX
  8
0
  5
5A9
 10
3103.07
 20
1832.84
 30
0.000000
  70
    32
  0
VERTEX
  8
0
  5
5AA
 10
3103.04
 20
1832.81
 30
0.000000
  70
    32
  0
VERTEX
  8
0
  5
5AB
 10
3103.01
 20
1832.77
 30
0.000000
  70
    32
  0
VERTEX
  8
0
  5
5AC
 10
3102.98
 20
1832.73
 30
0.000000
  70
    32
  0
VERTEX
  8
0
  5
5AD
 10
3102.94
 20
1832.70
 30
0.000000
  70
    32
  0
VERTEX
  8
0
  5
5AE
 10
3102.91
 20
1832.66
 30
0.000000
  70
    32
  0
VERTEX
  8
0
  5
5AF
 10
3102.88
 20
1832.62
 30
0.000000
  70
    32
  0
VERTEX
  8
0
  5
5B0
 10
3102.84
 20
1832.59
 30
0.000000
  70
    32
  0
VERTEX
  8
0
  5
5B1
 10
3102.81
 20
1832.55
 30
0.000000
  70
    32
  0
VERTEX
  8
0
  5
5B2
 10
3102.78
 20
1832.52
 30
0.000000
  70
    32
  0
VERTEX
  8
0
  5
5B3
 10
3102.75
 20
1832.48
 30
0.000000
  70
    32
  0
VERTEX
  8
0
  5
5B4
 10
3102.71
 20
1832.45
 30
0.000000
  70
    32
  0
VERTEX
  8
0
  5
5B5
 10
3102.68
 20
1832.41
 30
0.000000
  70
    32
  0
VERTEX
  8
0
  5
5B6
 10
3102.64
 20
1832.38
 30
0.000000
  70
    32
  0
VERTEX
  8
0
  5
5B7
 10
3102.61
 20
1832.34
 30
0.000000
  70
    32
  0
VERTEX
  8
0
  5
5B8
 10
3102.58
 20
1832.31
 30
0.000000
  70
    32
  0
VERTEX
  8
0
  5
5B9
 10
3102.54
 20
1832.27
 30
0.000000
  70
    32
  0
VERTEX
  8
0
  5
5BA
 10
3102.51
 20
1832.24
 30
0.000000
  70
    32
  0
VERTEX
  8
0
  5
5BB
 10
3102.47
 20
1832.21
 30
0.000000
  70
    32
  0
VERTEX
  8
0
  5
5BC
 10
3102.44
 20
1832.17
 30
0.000000
  70
    32
  0
VERTEX
  8
0
  5
5BD
 10
3102.40
 20
1832.14
 30
0.000000
  70
    32
  0
VERTEX
  8
0
  5
5BE
 10
3102.37
 20
1832.11
 30
0.000000
  70
    32
  0
VERTEX
  8
0
  5
5BF
 10
3102.33
 20
1832.07
 30
0.000000
  70
    32
  0
VERTEX
  8
0
  5
5C0
 10
3102.30
 20
1832.04
 30
0.000000
  70
    32
  0
VERTEX
  8
0
  5
5C1
 10
3102.26
 20
1832.01
 30
0.000000
  70
    32
  0
VERTEX
  8
0
  5
5C2
 10
3102.22
 20
1831.97
 30
0.000000
  70
    32
  0
VERTEX
  8
0
  5
5C3
 10
3102.19
 20
1831.94
 30
0.000000
  70
    32
  0
VERTEX
  8
0
  5
5C4
 10
3102.15
 20
1831.91
 30
0.000000
  70
    32
  0
VERTEX
  8
0
  5
5C5
 10
3102.12
 20
1831.88
 30
0.000000
  70
    32
  0
VERTEX
  8
0
  5
5C6
 10
3102.08
 20
1831.84
 30
0.000000
  70
    32
  0
VERTEX
  8
0
  5
5C7
 10
3102.04
 20
1831.81
 30
0.000000
  70
    32
  0
VERTEX
  8
0
  5
5C8
 10
3102.01
 20
1831.78
 30
0.000000
  70
    32
  0
VERTEX
  8
0
  5
5C9
 10
3101.97
 20
1831.75
 30
0.000000
  70
    32
  0
VERTEX
  8
0
  5
5CA
 10
3101.93
 20
1831.72
 30
0.000000
  70
    32
  0
VERTEX
  8
0
  5
5CB
 10
3101.90
 20
1831.69
 30
0.000000
  70
    32
  0
VERTEX
  8
0
  5
5CC
 10
3101.86
 20
1831.66
 30
0.000000
  70
    32
  0
VERTEX
  8
0
  5
5CD
 10
3101.82
 20
1831.62
 30
0.000000
  70
    32
  0
VERTEX
  8
0
  5
5CE
 10
3101.78
 20
1831.59
 30
0.000000
  70
    32
  0
VERTEX
  8
0
  5
5CF
 10
3101.75
 20
1831.56
 30
0.000000
  70
    32
  0
VERTEX
  8
0
  5
5D0
 10
3101.71
 20
1831.53
 30
0.000000
  70
    32
  0
VERTEX
  8
0
  5
5D1
 10
3101.67
 20
1831.50
 30
0.000000
  70
    32
  0
VERTEX
  8
0
  5
5D2
 10
3101.63
 20
1831.47
 30
0.000000
  70
    32
  0
VERTEX
  8
0
  5
5D3
 10
3101.59
 20
1831.44
 30
0.000000
  70
    32
  0
VERTEX
  8
0
  5
5D4
 10
3101.55
 20
1831.41
 30
0.000000
  70
    32
  0
VERTEX
  8
0
  5
5D5
 10
3101.52
 20
1831.38
 30
0.000000
  70
    32
  0
VERTEX
  8
0
  5
5D6
 10
3101.48
 20
1831.35
 30
0.000000
  70
    32
  0
VERTEX
  8
0
  5
5D7
 10
3101.44
 20
1831.32
 30
0.000000
  70
    32
  0
VERTEX
  8
0
  5
5D8
 10
3101.40
 20
1831.30
 30
0.000000
  70
    32
  0
VERTEX
  8
0
  5
5D9
 10
3101.36
 20
1831.27
 30
0.000000
  70
    32
  0
VERTEX
  8
0
  5
5DA
 10
3101.32
 20
1831.24
 30
0.000000
  70
    32
  0
VERTEX
  8
0
  5
5DB
 10
3101.28
 20
1831.21
 30
0.000000
  70
    32
  0
VERTEX
  8
0
  5
5DC
 10
3101.24
 20
1831.18
 30
0.000000
  70
    32
  0
VERTEX
  8
0
  5
5DD
 10
3101.20
 20
1831.15
 30
0.000000
  70
    32
  0
VERTEX
  8
0
  5
5DE
 10
3101.16
 20
1831.13
 30
0.000000
  70
    32
  0
VERTEX
  8
0
  5
5DF
 10
3101.12
 20
1831.10
 30
0.000000
  70
    32
  0
VERTEX
  8
0
  5
5E0
 10
3101.08
 20
1831.07
 30
0.000000
  70
    32
  0
VERTEX
  8
0
  5
5E1
 10
3101.04
 20
1831.04
 30
0.000000
  70
    32
  0
VERTEX
  8
0
  5
5E2
 10
3101.00
 20
1831.01
 30
0.000000
  70
    32
  0
VERTEX
  8
0
  5
5E3
 10
3100.96
 20
1830.99
 30
0.000000
  70
    32
  0
VERTEX
  8
0
  5
5E4
 10
3100.92
 20
1830.96
 30
0.000000
  70
    32
  0
VERTEX
  8
0
  5
5E5
 10
3100.88
 20
1830.93
 30
0.000000
  70
    32
  0
VERTEX
  8
0
  5
5E6
 10
3100.84
 20
1830.91
 30
0.000000
  70
    32
  0
VERTEX
  8
0
  5
5E7
 10
3100.80
 20
1830.88
 30
0.000000
  70
    32
  0
VERTEX
  8
0
  5
5E8
 10
3100.76
 20
1830.85
 30
0.000000
  70
    32
  0
VERTEX
  8
0
  5
5E9
 10
3100.72
 20
1830.83
 30
0.000000
  70
    32
  0
VERTEX
  8
0
  5
5EA
 10
3100.68
 20
1830.80
 30
0.000000
  70
    32
  0
VERTEX
  8
0
  5
5EB
 10
3100.64
 20
1830.78
 30
0.000000
  70
    32
  0
VERTEX
  8
0
  5
5EC
 10
3100.60
 20
1830.75
 30
0.000000
  70
    32
  0
VERTEX
  8
0
  5
5ED
 10
3100.56
 20
1830.73
 30
0.000000
  70
    32
  0
VERTEX
  8
0
  5
5EE
 10
3100.51
 20
1830.70
 30
0.000000
  70
    32
  0
VERTEX
  8
0
  5
5EF
 10
3100.47
 20
1830.67
 30
0.000000
  70
    32
  0
VERTEX
  8
0
  5
5F0
 10
3100.43
 20
1830.65
 30
0.000000
  70
    32
  0
VERTEX
  8
0
  5
5F1
 10
3100.39
 20
1830.62
 30
0.000000
  70
    32
  0
VERTEX
  8
0
  5
5F2
 10
3100.35
 20
1830.60
 30
0.000000
  70
    32
  0
VERTEX
  8
0
  5
5F3
 10
3100.31
 20
1830.58
 30
0.000000
  70
    32
  0
VERTEX
  8
0
  5
5F4
 10
3100.26
 20
1830.55
 30
0.000000
  70
    32
  0
VERTEX
  8
0
  5
5F5
 10
3100.22
 20
1830.53
 30
0.000000
  70
    32
  0
VERTEX
  8
0
  5
5F6
 10
3100.18
 20
1830.50
 30
0.000000
  70
    32
  0
VERTEX
  8
0
  5
5F7
 10
3100.14
 20
1830.48
 30
0.000000
  70
    32
  0
VERTEX
  8
0
  5
5F8
 10
3100.10
 20
1830.45
 30
0.000000
  70
    32
  0
VERTEX
  8
0
  5
5F9
 10
3100.05
 20
1830.43
 30
0.000000
  70
    32
  0
VERTEX
  8
0
  5
5FA
 10
3100.01
 20
1830.41
 30
0.000000
  70
    32
  0
VERTEX
  8
0
  5
5FB
 10
3099.97
 20
1830.38
 30
0.000000
  70
    32
  0
VERTEX
  8
0
  5
5FC
 10
3099.93
 20
1830.36
 30
0.000000
  70
    32
  0
VERTEX
  8
0
  5
5FD
 10
3099.88
 20
1830.34
 30
0.000000
  70
    32
  0
VERTEX
  8
0
  5
5FE
 10
3099.84
 20
1830.32
 30
0.000000
  70
    32
  0
VERTEX
  8
0
  5
5FF
 10
3099.80
 20
1830.29
 30
0.000000
  70
    32
  0
VERTEX
  8
0
  5
600
 10
3099.75
 20
1830.27
 30
0.000000
  70
    32
  0
VERTEX
  8
0
  5
601
 10
3099.71
 20
1830.25
 30
0.000000
  70
    32
  0
VERTEX
  8
0
  5
602
 10
3099.67
 20
1830.23
 30
0.000000
  70
    32
  0
VERTEX
  8
0
  5
603
 10
3099.62
 20
1830.20
 30
0.000000
  70
    32
  0
VERTEX
  8
0
  5
604
 10
3099.58
 20
1830.18
 30
0.000000
  70
    32
  0
VERTEX
  8
0
  5
605
 10
3099.54
 20
1830.16
 30
0.000000
  70
    32
  0
VERTEX
  8
0
  5
606
 10
3099.49
 20
1830.14
 30
0.000000
  70
    32
  0
VERTEX
  8
0
  5
607
 10
3099.45
 20
1830.12
 30
0.000000
  70
    32
  0
VERTEX
  8
0
  5
608
 10
3099.41
 20
1830.10
 30
0.000000
  70
    32
  0
VERTEX
  8
0
  5
609
 10
3099.36
 20
1830.08
 30
0.000000
  70
    32
  0
VERTEX
  8
0
  5
60A
 10
3099.32
 20
1830.05
 30
0.000000
  70
    32
  0
VERTEX
  8
0
  5
60B
 10
3099.28
 20
1830.03
 30
0.000000
  70
    32
  0
VERTEX
  8
0
  5
60C
 10
3099.23
 20
1830.01
 30
0.000000
  70
    32
  0
VERTEX
  8
0
  5
60D
 10
3099.19
 20
1829.99
 30
0.000000
  70
    32
  0
VERTEX
  8
0
  5
60E
 10
3099.14
 20
1829.97
 30
0.000000
  70
    32
  0
VERTEX
  8
0
  5
60F
 10
3099.10
 20
1829.95
 30
0.000000
  70
    32
  0
VERTEX
  8
0
  5
610
 10
3099.06
 20
1829.93
 30
0.000000
  70
    32
  0
VERTEX
  8
0
  5
611
 10
3099.01
 20
1829.91
 30
0.000000
  70
    32
  0
VERTEX
  8
0
  5
612
 10
3098.97
 20
1829.89
 30
0.000000
  70
    32
  0
VERTEX
  8
0
  5
613
 10
3098.92
 20
1829.87
 30
0.000000
  70
    32
  0
VERTEX
  8
0
  5
614
 10
3098.88
 20
1829.85
 30
0.000000
  70
    32
  0
VERTEX
  8
0
  5
615
 10
3098.83
 20
1829.83
 30
0.000000
  70
    32
  0
VERTEX
  8
0
  5
616
 10
3098.79
 20
1829.81
 30
0.000000
  70
    32
  0
VERTEX
  8
0
  5
617
 10
3098.74
 20
1829.80
 30
0.000000
  70
    32
  0
VERTEX
  8
0
  5
618
 10
3098.70
 20
1829.78
 30
0.000000
  70
    32
  0
VERTEX
  8
0
  5
619
 10
3098.65
 20
1829.76
 30
0.000000
  70
    32
  0
VERTEX
  8
0
  5
61A
 10
3098.61
 20
1829.74
 30
0.000000
  70
    32
  0
VERTEX
  8
0
  5
61B
 10
3098.56
 20
1829.72
 30
0.000000
  70
    32
  0
VERTEX
  8
0
  5
61C
 10
3098.52
 20
1829.70
 30
0.000000
  70
    32
  0
VERTEX
  8
0
  5
61D
 10
3098.47
 20
1829.69
 30
0.000000
  70
    32
  0
VERTEX
  8
0
  5
61E
 10
3098.43
 20
1829.67
 30
0.000000
  70
    32
  0
VERTEX
  8
0
  5
61F
 10
3098.38
 20
1829.65
 30
0.000000
  70
    32
  0
VERTEX
  8
0
  5
620
 10
3098.34
 20
1829.63
 30
0.000000
  70
    32
  0
VERTEX
  8
0
  5
621
 10
3098.29
 20
1829.61
 30
0.000000
  70
    32
  0
VERTEX
  8
0
  5
622
 10
3098.25
 20
1829.60
 30
0.000000
  70
    32
  0
VERTEX
  8
0
  5
623
 10
3098.20
 20
1829.58
 30
0.000000
  70
    32
  0
VERTEX
  8
0
  5
624
 10
3098.16
 20
1829.56
 30
0.000000
  70
    32
  0
VERTEX
  8
0
  5
625
 10
3098.11
 20
1829.55
 30
0.000000
  70
    32
  0
VERTEX
  8
0
  5
626
 10
3098.07
 20
1829.53
 30
0.000000
  70
    32
  0
VERTEX
  8
0
  5
627
 10
3098.02
 20
1829.51
 30
0.000000
  70
    32
  0
VERTEX
  8
0
  5
628
 10
3097.98
 20
1829.50
 30
0.000000
  70
    32
  0
VERTEX
  8
0
  5
629
 10
3097.93
 20
1829.48
 30
0.000000
  70
    32
  0
VERTEX
  8
0
  5
62A
 10
3097.88
 20
1829.46
 30
0.000000
  70
    32
  0
VERTEX
  8
0
  5
62B
 10
3097.84
 20
1829.45
 30
0.000000
  70
    32
  0
VERTEX
  8
0
  5
62C
 10
3097.79
 20
1829.43
 30
0.000000
  70
    32
  0
VERTEX
  8
0
  5
62D
 10
3097.75
 20
1829.42
 30
0.000000
  70
    32
  0
VERTEX
  8
0
  5
62E
 10
3097.70
 20
1829.40
 30
0.000000
  70
    32
  0
VERTEX
  8
0
  5
62F
 10
3097.65
 20
1829.39
 30
0.000000
  70
    32
  0
VERTEX
  8
0
  5
630
 10
3097.61
 20
1829.37
 30
0.000000
  70
    32
  0
VERTEX
  8
0
  5
631
 10
3097.56
 20
1829.36
 30
0.000000
  70
    32
  0
VERTEX
  8
0
  5
632
 10
3097.52
 20
1829.34
 30
0.000000
  70
    32
  0
VERTEX
  8
0
  5
633
 10
3097.47
 20
1829.33
 30
0.000000
  70
    32
  0
VERTEX
  8
0
  5
634
 10
3097.42
 20
1829.31
 30
0.000000
  70
    32
  0
VERTEX
  8
0
  5
635
 10
3097.38
 20
1829.30
 30
0.000000
  70
    32
  0
VERTEX
  8
0
  5
636
 10
3097.33
 20
1829.28
 30
0.000000
  70
    32
  0
VERTEX
  8
0
  5
637
 10
3097.28
 20
1829.27
 30
0.000000
  70
    32
  0
VERTEX
  8
0
  5
638
 10
3097.24
 20
1829.25
 30
0.000000
  70
    32
  0
VERTEX
  8
0
  5
639
 10
3097.19
 20
1829.24
 30
0.000000
  70
    32
  0
VERTEX
  8
0
  5
63A
 10
3097.15
 20
1829.23
 30
0.000000
  70
    32
  0
VERTEX
  8
0
  5
63B
 10
3097.10
 20
1829.21
 30
0.000000
  70
    32
  0
VERTEX
  8
0
  5
63C
 10
3097.05
 20
1829.20
 30
0.000000
  70
    32
  0
VERTEX
  8
0
  5
63D
 10
3097.01
 20
1829.19
 30
0.000000
  70
    32
  0
VERTEX
  8
0
  5
63E
 10
3096.96
 20
1829.17
 30
0.000000
  70
    32
  0
VERTEX
  8
0
  5
63F
 10
3096.91
 20
1829.16
 30
0.000000
  70
    32
  0
VERTEX
  8
0
  5
640
 10
3096.87
 20
1829.15
 30
0.000000
  70
    32
  0
VERTEX
  8
0
  5
641
 10
3096.82
 20
1829.13
 30
0.000000
  70
    32
  0
VERTEX
  8
0
  5
642
 10
3096.77
 20
1829.12
 30
0.000000
  70
    32
  0
VERTEX
  8
0
  5
643
 10
3096.72
 20
1829.11
 30
0.000000
  70
    32
  0
VERTEX
  8
0
  5
644
 10
3096.68
 20
1829.10
 30
0.000000
  70
    32
  0
VERTEX
  8
0
  5
645
 10
3096.63
 20
1829.09
 30
0.000000
  70
    32
  0
VERTEX
  8
0
  5
646
 10
3096.58
 20
1829.07
 30
0.000000
  70
    32
  0
VERTEX
  8
0
  5
647
 10
3096.54
 20
1829.06
 30
0.000000
  70
    32
  0
VERTEX
  8
0
  5
648
 10
3096.49
 20
1829.05
 30
0.000000
  70
    32
  0
VERTEX
  8
0
  5
649
 10
3096.44
 20
1829.04
 30
0.000000
  70
    32
  0
VERTEX
  8
0
  5
64A
 10
3096.40
 20
1829.03
 30
0.000000
  70
    32
  0
VERTEX
  8
0
  5
64B
 10
3096.35
 20
1829.02
 30
0.000000
  70
    32
  0
VERTEX
  8
0
  5
64C
 10
3096.30
 20
1829.00
 30
0.000000
  70
    32
  0
VERTEX
  8
0
  5
64D
 10
3096.25
 20
1828.99
 30
0.000000
  70
    32
  0
VERTEX
  8
0
  5
64E
 10
3096.21
 20
1828.98
 30
0.000000
  70
    32
  0
VERTEX
  8
0
  5
64F
 10
3096.16
 20
1828.97
 30
0.000000
  70
    32
  0
VERTEX
  8
0
  5
650
 10
3096.11
 20
1828.96
 30
0.000000
  70
    32
  0
VERTEX
  8
0
  5
651
 10
3096.06
 20
1828.95
 30
0.000000
  70
    32
  0
VERTEX
  8
0
  5
652
 10
3096.02
 20
1828.94
 30
0.000000
  70
    32
  0
VERTEX
  8
0
  5
653
 10
3095.97
 20
1828.93
 30
0.000000
  70
    32
  0
VERTEX
  8
0
  5
654
 10
3095.92
 20
1828.92
 30
0.000000
  70
    32
  0
VERTEX
  8
0
  5
655
 10
3095.87
 20
1828.91
 30
0.000000
  70
    32
  0
VERTEX
  8
0
  5
656
 10
3095.83
 20
1828.90
 30
0.000000
  70
    32
  0
VERTEX
  8
0
  5
657
 10
3095.78
 20
1828.89
 30
0.000000
  70
    32
  0
VERTEX
  8
0
  5
658
 10
3095.73
 20
1828.88
 30
0.000000
  70
    32
  0
VERTEX
  8
0
  5
659
 10
3095.68
 20
1828.87
 30
0.000000
  70
    32
  0
VERTEX
  8
0
  5
65A
 10
3095.64
 20
1828.86
 30
0.000000
  70
    32
  0
VERTEX
  8
0
  5
65B
 10
3095.59
 20
1828.85
 30
0.000000
  70
    32
  0
VERTEX
  8
0
  5
65C
 10
3095.54
 20
1828.85
 30
0.000000
  70
    32
  0
VERTEX
  8
0
  5
65D
 10
3095.49
 20
1828.84
 30
0.000000
  70
    32
  0
VERTEX
  8
0
  5
65E
 10
3095.45
 20
1828.83
 30
0.000000
  70
    32
  0
VERTEX
  8
0
  5
65F
 10
3095.40
 20
1828.82
 30
0.000000
  70
    32
  0
VERTEX
  8
0
  5
660
 10
3095.35
 20
1828.81
 30
0.000000
  70
    32
  0
VERTEX
  8
0
  5
661
 10
3095.30
 20
1828.80
 30
0.000000
  70
    32
  0
VERTEX
  8
0
  5
662
 10
3095.25
 20
1828.80
 30
0.000000
  70
    32
  0
VERTEX
  8
0
  5
663
 10
3095.21
 20
1828.79
 30
0.000000
  70
    32
  0
VERTEX
  8
0
  5
664
 10
3095.16
 20
1828.78
 30
0.000000
  70
    32
  0
VERTEX
  8
0
  5
665
 10
3095.11
 20
1828.77
 30
0.000000
  70
    32
  0
VERTEX
  8
0
  5
666
 10
3095.06
 20
1828.77
 30
0.000000
  70
    32
  0
VERTEX
  8
0
  5
667
 10
3095.02
 20
1828.76
 30
0.000000
  70
    32
  0
VERTEX
  8
0
  5
668
 10
3094.97
 20
1828.75
 30
0.000000
  70
    32
  0
VERTEX
  8
0
  5
669
 10
3094.92
 20
1828.74
 30
0.000000
  70
    32
  0
VERTEX
  8
0
  5
66A
 10
3094.87
 20
1828.74
 30
0.000000
  70
    32
  0
VERTEX
  8
0
  5
66B
 10
3094.82
 20
1828.73
 30
0.000000
  70
    32
  0
VERTEX
  8
0
  5
66C
 10
3094.78
 20
1828.72
 30
0.000000
  70
    32
  0
VERTEX
  8
0
  5
66D
 10
3094.73
 20
1828.72
 30
0.000000
  70
    32
  0
VERTEX
  8
0
  5
66E
 10
3094.68
 20
1828.71
 30
0.000000
  70
    32
  0
VERTEX
  8
0
  5
66F
 10
3094.63
 20
1828.70
 30
0.000000
  70
    32
  0
VERTEX
  8
0
  5
670
 10
3094.58
 20
1828.70
 30
0.000000
  70
    32
  0
VERTEX
  8
0
  5
671
 10
3094.53
 20
1828.69
 30
0.000000
  70
    32
  0
VERTEX
  8
0
  5
672
 10
3094.49
 20
1828.69
 30
0.000000
  70
    32
  0
VERTEX
  8
0
  5
673
 10
3094.44
 20
1828.68
 30
0.000000
  70
    32
  0
VERTEX
  8
0
  5
674
 10
3094.39
 20
1828.67
 30
0.000000
  70
    32
  0
VERTEX
  8
0
  5
675
 10
3094.34
 20
1828.67
 30
0.000000
  70
    32
  0
VERTEX
  8
0
  5
676
 10
3094.29
 20
1828.66
 30
0.000000
  70
    32
  0
VERTEX
  8
0
  5
677
 10
3094.25
 20
1828.66
 30
0.000000
  70
    32
  0
VERTEX
  8
0
  5
678
 10
3094.20
 20
1828.65
 30
0.000000
  70
    32
  0
VERTEX
  8
0
  5
679
 10
3094.15
 20
1828.65
 30
0.000000
  70
    32
  0
VERTEX
  8
0
  5
67A
 10
3094.10
 20
1828.64
 30
0.000000
  70
    32
  0
VERTEX
  8
0
  5
67B
 10
3094.05
 20
1828.64
 30
0.000000
  70
    32
  0
VERTEX
  8
0
  5
67C
 10
3094.00
 20
1828.64
 30
0.000000
  70
    32
  0
VERTEX
  8
0
  5
67D
 10
3093.96
 20
1828.63
 30
0.000000
  70
    32
  0
VERTEX
  8
0
  5
67E
 10
3093.91
 20
1828.63
 30
0.000000
  70
    32
  0
VERTEX
  8
0
  5
67F
 10
3093.86
 20
1828.62
 30
0.000000
  70
    32
  0
VERTEX
  8
0
  5
680
 10
3093.81
 20
1828.62
 30
0.000000
  70
    32
  0
VERTEX
  8
0
  5
681
 10
3093.76
 20
1828.62
 30
0.000000
  70
    32
  0
VERTEX
  8
0
  5
682
 10
3093.71
 20
1828.61
 30
0.000000
  70
    32
  0
VERTEX
  8
0
  5
683
 10
3093.67
 20
1828.61
 30
0.000000
  70
    32
  0
VERTEX
  8
0
  5
684
 10
3093.62
 20
1828.60
 30
0.000000
  70
    32
  0
VERTEX
  8
0
  5
685
 10
3093.57
 20
1828.60
 30
0.000000
  70
    32
  0
VERTEX
  8
0
  5
686
 10
3093.52
 20
1828.60
 30
0.000000
  70
    32
  0
VERTEX
  8
0
  5
687
 10
3093.47
 20
1828.60
 30
0.000000
  70
    32
  0
VERTEX
  8
0
  5
688
 10
3093.42
 20
1828.59
 30
0.000000
  70
    32
  0
VERTEX
  8
0
  5
689
 10
3093.37
 20
1828.59
 30
0.000000
  70
    32
  0
VERTEX
  8
0
  5
68A
 10
3093.33
 20
1828.59
 30
0.000000
  70
    32
  0
VERTEX
  8
0
  5
68B
 10
3093.28
 20
1828.58
 30
0.000000
  70
    32
  0
VERTEX
  8
0
  5
68C
 10
3093.23
 20
1828.58
 30
0.000000
  70
    32
  0
VERTEX
  8
0
  5
68D
 10
3093.18
 20
1828.58
 30
0.000000
  70
    32
  0
VERTEX
  8
0
  5
68E
 10
3093.13
 20
1828.58
 30
0.000000
  70
    32
  0
VERTEX
  8
0
  5
68F
 10
3093.08
 20
1828.58
 30
0.000000
  70
    32
  0
VERTEX
  8
0
  5
690
 10
3093.04
 20
1828.57
 30
0.000000
  70
    32
  0
VERTEX
  8
0
  5
691
 10
3092.99
 20
1828.57
 30
0.000000
  70
    32
  0
VERTEX
  8
0
  5
692
 10
3092.94
 20
1828.57
 30
0.000000
  70
    32
  0
VERTEX
  8
0
  5
693
 10
3092.89
 20
1828.57
 30
0.000000
  70
    32
  0
VERTEX
  8
0
  5
694
 10
3092.84
 20
1828.57
 30
0.000000
  70
    32
  0
VERTEX
  8
0
  5
695
 10
3092.79
 20
1828.57
 30
0.000000
  70
    32
  0
VERTEX
  8
0
  5
696
 10
3092.74
 20
1828.57
 30
0.000000
  70
    32
  0
VERTEX
  8
0
  5
697
 10
3092.70
 20
1828.57
 30
0.000000
  70
    32
  0
VERTEX
  8
0
  5
698
 10
3092.65
 20
1828.57
 30
0.000000
  70
    32
  0
VERTEX
  8
0
  5
699
 10
3092.60
 20
1828.57
 30
0.000000
  70
    32
  0
VERTEX
  8
0
  5
69A
 10
3092.55
 20
1828.57
 30
0.000000
  70
    32
  0
VERTEX
  8
0
  5
69B
 10
3092.50
 20
1828.57
 30
0.000000
  70
    32
  0
VERTEX
  8
0
  5
69C
 10
3092.45
 20
1828.56
 30
0.000000
  70
    32
  0
SEQEND
  8
0
  5
69D
  0
POLYLINE
  8
0
  5
69E
  66
     1
 10
0.000000
 20
0.000000
 30
0.000000
  70
     8
  0
VERTEX
  8
0
  5
69F
 10
3100.95
 20
1851.21
 30
0.000000
  70
    32
  0
VERTEX
  8
0
  5
6A0
 10
3100.97
 20
1851.21
 30
0.000000
  70
    32
  0
VERTEX
  8
0
  5
6A1
 10
3100.99
 20
1851.21
 30
0.000000
  70
    32
  0
VERTEX
  8
0
  5
6A2
 10
3101.01
 20
1851.21
 30
0.000000
  70
    32
  0
VERTEX
  8
0
  5
6A3
 10
3101.03
 20
1851.21
 30
0.000000
  70
    32
  0
VERTEX
  8
0
  5
6A4
 10
3101.05
 20
1851.21
 30
0.000000
  70
    32
  0
VERTEX
  8
0
  5
6A5
 10
3101.07
 20
1851.21
 30
0.000000
  70
    32
  0
VERTEX
  8
0
  5
6A6
 10
3101.09
 20
1851.21
 30
0.000000
  70
    32
  0
VERTEX
  8
0
  5
6A7
 10
3101.11
 20
1851.21
 30
0.000000
  70
    32
  0
VERTEX
  8
0
  5
6A8
 10
3101.12
 20
1851.20
 30
0.000000
  70
    32
  0
VERTEX
  8
0
  5
6A9
 10
3101.14
 20
1851.20
 30
0.000000
  70
    32
  0
VERTEX
  8
0
  5
6AA
 10
3101.16
 20
1851.20
 30
0.000000
  70
    32
  0
VERTEX
  8
0
  5
6AB
 10
3101.18
 20
1851.20
 30
0.000000
  70
    32
  0
VERTEX
  8
0
  5
6AC
 10
3101.20
 20
1851.20
 30
0.000000
  70
    32
  0
VERTEX
  8
0
  5
6AD
 10
3101.22
 20
1851.20
 30
0.000000
  70
    32
  0
VERTEX
  8
0
  5
6AE
 10
3101.24
 20
1851.20
 30
0.000000
  70
    32
  0
VERTEX
  8
0
  5
6AF
 10
3101.26
 20
1851.20
 30
0.000000
  70
    32
  0
VERTEX
  8
0
  5
6B0
 10
3101.28
 20
1851.20
 30
0.000000
  70
    32
  0
VERTEX
  8
0
  5
6B1
 10
3101.30
 20
1851.20
 30
0.000000
  70
    32
  0
VERTEX
  8
0
  5
6B2
 10
3101.31
 20
1851.20
 30
0.000000
  70
    32
  0
VERTEX
  8
0
  5
6B3
 10
3101.33
 20
1851.19
 30
0.000000
  70
    32
  0
VERTEX
  8
0
  5
6B4
 10
3101.35
 20
1851.19
 30
0.000000
  70
    32
  0
VERTEX
  8
0
  5
6B5
 10
3101.37
 20
1851.19
 30
0.000000
  70
    32
  0
VERTEX
  8
0
  5
6B6
 10
3101.39
 20
1851.19
 30
0.000000
  70
    32
  0
VERTEX
  8
0
  5
6B7
 10
3101.41
 20
1851.19
 30
0.000000
  70
    32
  0
VERTEX
  8
0
  5
6B8
 10
3101.43
 20
1851.19
 30
0.000000
  70
    32
  0
VERTEX
  8
0
  5
6B9
 10
3101.45
 20
1851.19
 30
0.000000
  70
    32
  0
VERTEX
  8
0
  5
6BA
 10
3101.47
 20
1851.18
 30
0.000000
  70
    32
  0
VERTEX
  8
0
  5
6BB
 10
3101.48
 20
1851.18
 30
0.000000
  70
    32
  0
VERTEX
  8
0
  5
6BC
 10
3101.50
 20
1851.18
 30
0.000000
  70
    32
  0
VERTEX
  8
0
  5
6BD
 10
3101.52
 20
1851.18
 30
0.000000
  70
    32
  0
VERTEX
  8
0
  5
6BE
 10
3101.54
 20
1851.18
 30
0.000000
  70
    32
  0
VERTEX
  8
0
  5
6BF
 10
3101.56
 20
1851.17
 30
0.000000
  70
    32
  0
VERTEX
  8
0
  5
6C0
 10
3101.58
 20
1851.17
 30
0.000000
  70
    32
  0
VERTEX
  8
0
  5
6C1
 10
3101.60
 20
1851.17
 30
0.000000
  70
    32
  0
VERTEX
  8
0
  5
6C2
 10
3101.62
 20
1851.17
 30
0.000000
  70
    32
  0
VERTEX
  8
0
  5
6C3
 10
3101.64
 20
1851.16
 30
0.000000
  70
    32
  0
VERTEX
  8
0
  5
6C4
 10
3101.65
 20
1851.16
 30
0.000000
  70
    32
  0
VERTEX
  8
0
  5
6C5
 10
3101.67
 20
1851.16
 30
0.000000
  70
    32
  0
VERTEX
  8
0
  5
6C6
 10
3101.69
 20
1851.16
 30
0.000000
  70
    32
  0
VERTEX
  8
0
  5
6C7
 10
3101.71
 20
1851.15
 30
0.000000
  70
    32
  0
VERTEX
  8
0
  5
6C8
 10
3101.73
 20
1851.15
 30
0.000000
  70
    32
  0
VERTEX
  8
0
  5
6C9
 10
3101.75
 20
1851.15
 30
0.000000
  70
    32
  0
VERTEX
  8
0
  5
6CA
 10
3101.77
 20
1851.15
 30
0.000000
  70
    32
  0
VERTEX
  8
0
  5
6CB
 10
3101.79
 20
1851.14
 30
0.000000
  70
    32
  0
VERTEX
  8
0
  5
6CC
 10
3101.80
 20
1851.14
 30
0.000000
  70
    32
  0
VERTEX
  8
0
  5
6CD
 10
3101.82
 20
1851.14
 30
0.000000
  70
    32
  0
VERTEX
  8
0
  5
6CE
 10
3101.84
 20
1851.13
 30
0.000000
  70
    32
  0
VERTEX
  8
0
  5
6CF
 10
3101.86
 20
1851.13
 30
0.000000
  70
    32
  0
VERTEX
  8
0
  5
6D0
 10
3101.88
 20
1851.13
 30
0.000000
  70
    32
  0
VERTEX
  8
0
  5
6D1
 10
3101.90
 20
1851.13
 30
0.000000
  70
    32
  0
VERTEX
  8
0
  5
6D2
 10
3101.92
 20
1851.12
 30
0.000000
  70
    32
  0
VERTEX
  8
0
  5
6D3
 10
3101.94
 20
1851.12
 30
0.000000
  70
    32
  0
VERTEX
  8
0
  5
6D4
 10
3101.95
 20
1851.12
 30
0.000000
  70
    32
  0
VERTEX
  8
0
  5
6D5
 10
3101.97
 20
1851.11
 30
0.000000
  70
    32
  0
VERTEX
  8
0
  5
6D6
 10
3101.99
 20
1851.11
 30
0.000000
  70
    32
  0
VERTEX
  8
0
  5
6D7
 10
3102.01
 20
1851.10
 30
0.000000
  70
    32
  0
VERTEX
  8
0
  5
6D8
 10
3102.03
 20
1851.10
 30
0.000000
  70
    32
  0
VERTEX
  8
0
  5
6D9
 10
3102.05
 20
1851.10
 30
0.000000
  70
    32
  0
VERTEX
  8
0
  5
6DA
 10
3102.07
 20
1851.09
 30
0.000000
  70
    32
  0
VERTEX
  8
0
  5
6DB
 10
3102.09
 20
1851.09
 30
0.000000
  70
    32
  0
VERTEX
  8
0
  5
6DC
 10
3102.10
 20
1851.08
 30
0.000000
  70
    32
  0
VERTEX
  8
0
  5
6DD
 10
3102.12
 20
1851.08
 30
0.000000
  70
    32
  0
VERTEX
  8
0
  5
6DE
 10
3102.14
 20
1851.08
 30
0.000000
  70
    32
  0
VERTEX
  8
0
  5
6DF
 10
3102.16
 20
1851.07
 30
0.000000
  70
    32
  0
VERTEX
  8
0
  5
6E0
 10
3102.18
 20
1851.07
 30
0.000000
  70
    32
  0
VERTEX
  8
0
  5
6E1
 10
3102.20
 20
1851.06
 30
0.000000
  70
    32
  0
VERTEX
  8
0
  5
6E2
 10
3102.22
 20
1851.06
 30
0.000000
  70
    32
  0
VERTEX
  8
0
  5
6E3
 10
3102.23
 20
1851.05
 30
0.000000
  70
    32
  0
VERTEX
  8
0
  5
6E4
 10
3102.25
 20
1851.05
 30
0.000000
  70
    32
  0
VERTEX
  8
0
  5
6E5
 10
3102.27
 20
1851.05
 30
0.000000
  70
    32
  0
VERTEX
  8
0
  5
6E6
 10
3102.29
 20
1851.04
 30
0.000000
  70
    32
  0
VERTEX
  8
0
  5
6E7
 10
3102.31
 20
1851.04
 30
0.000000
  70
    32
  0
VERTEX
  8
0
  5
6E8
 10
3102.33
 20
1851.03
 30
0.000000
  70
    32
  0
VERTEX
  8
0
  5
6E9
 10
3102.34
 20
1851.03
 30
0.000000
  70
    32
  0
VERTEX
  8
0
  5
6EA
 10
3102.36
 20
1851.02
 30
0.000000
  70
    32
  0
VERTEX
  8
0
  5
6EB
 10
3102.38
 20
1851.02
 30
0.000000
  70
    32
  0
VERTEX
  8
0
  5
6EC
 10
3102.40
 20
1851.01
 30
0.000000
  70
    32
  0
VERTEX
  8
0
  5
6ED
 10
3102.42
 20
1851.01
 30
0.000000
  70
    32
  0
VERTEX
  8
0
  5
6EE
 10
3102.44
 20
1851.00
 30
0.000000
  70
    32
  0
VERTEX
  8
0
  5
6EF
 10
3102.45
 20
1851.00
 30
0.000000
  70
    32
  0
VERTEX
  8
0
  5
6F0
 10
3102.47
 20
1850.99
 30
0.000000
  70
    32
  0
VERTEX
  8
0
  5
6F1
 10
3102.49
 20
1850.98
 30
0.000000
  70
    32
  0
VERTEX
  8
0
  5
6F2
 10
3102.51
 20
1850.98
 30
0.000000
  70
    32
  0
VERTEX
  8
0
  5
6F3
 10
3102.53
 20
1850.97
 30
0.000000
  70
    32
  0
VERTEX
  8
0
  5
6F4
 10
3102.55
 20
1850.97
 30
0.000000
  70
    32
  0
VERTEX
  8
0
  5
6F5
 10
3102.56
 20
1850.96
 30
0.000000
  70
    32
  0
VERTEX
  8
0
  5
6F6
 10
3102.58
 20
1850.96
 30
0.000000
  70
    32
  0
VERTEX
  8
0
  5
6F7
 10
3102.60
 20
1850.95
 30
0.000000
  70
    32
  0
VERTEX
  8
0
  5
6F8
 10
3102.62
 20
1850.94
 30
0.000000
  70
    32
  0
VERTEX
  8
0
  5
6F9
 10
3102.64
 20
1850.94
 30
0.000000
  70
    32
  0
VERTEX
  8
0
  5
6FA
 10
3102.65
 20
1850.93
 30
0.000000
  70
    32
  0
VERTEX
  8
0
  5
6FB
 10
3102.67
 20
1850.93
 30
0.000000
  70
    32
  0
VERTEX
  8
0
  5
6FC
 10
3102.69
 20
1850.92
 30
0.000000
  70
    32
  0
VERTEX
  8
0
  5
6FD
 10
3102.71
 20
1850.91
 30
0.000000
  70
    32
  0
VERTEX
  8
0
  5
6FE
 10
3102.73
 20
1850.91
 30
0.000000
  70
    32
  0
VERTEX
  8
0
  5
6FF
 10
3102.74
 20
1850.90
 30
0.000000
  70
    32
  0
VERTEX
  8
0
  5
700
 10
3102.76
 20
1850.89
 30
0.000000
  70
    32
  0
VERTEX
  8
0
  5
701
 10
3102.78
 20
1850.89
 30
0.000000
  70
    32
  0
VERTEX
  8
0
  5
702
 10
3102.80
 20
1850.88
 30
0.000000
  70
    32
  0
VERTEX
  8
0
  5
703
 10
3102.82
 20
1850.87
 30
0.000000
  70
    32
  0
VERTEX
  8
0
  5
704
 10
3102.83
 20
1850.87
 30
0.000000
  70
    32
  0
VERTEX
  8
0
  5
705
 10
3102.85
 20
1850.86
 30
0.000000
  70
    32
  0
VERTEX
  8
0
  5
706
 10
3102.87
 20
1850.85
 30
0.000000
  70
    32
  0
VERTEX
  8
0
  5
707
 10
3102.89
 20
1850.85
 30
0.000000
  70
    32
  0
VERTEX
  8
0
  5
708
 10
3102.90
 20
1850.84
 30
0.000000
  70
    32
  0
VERTEX
  8
0
  5
709
 10
3102.92
 20
1850.83
 30
0.000000
  70
    32
  0
VERTEX
  8
0
  5
70A
 10
3102.94
 20
1850.83
 30
0.000000
  70
    32
  0
VERTEX
  8
0
  5
70B
 10
3102.96
 20
1850.82
 30
0.000000
  70
    32
  0
VERTEX
  8
0
  5
70C
 10
3102.97
 20
1850.81
 30
0.000000
  70
    32
  0
VERTEX
  8
0
  5
70D
 10
3102.99
 20
1850.80
 30
0.000000
  70
    32
  0
VERTEX
  8
0
  5
70E
 10
3103.01
 20
1850.80
 30
0.000000
  70
    32
  0
VERTEX
  8
0
  5
70F
 10
3103.03
 20
1850.79
 30
0.000000
  70
    32
  0
VERTEX
  8
0
  5
710
 10
3103.04
 20
1850.78
 30
0.000000
  70
    32
  0
VERTEX
  8
0
  5
711
 10
3103.06
 20
1850.77
 30
0.000000
  70
    32
  0
VERTEX
  8
0
  5
712
 10
3103.08
 20
1850.76
 30
0.000000
  70
    32
  0
VERTEX
  8
0
  5
713
 10
3103.10
 20
1850.76
 30
0.000000
  70
    32
  0
VERTEX
  8
0
  5
714
 10
3103.11
 20
1850.75
 30
0.000000
  70
    32
  0
VERTEX
  8
0
  5
715
 10
3103.13
 20
1850.74
 30
0.000000
  70
    32
  0
VERTEX
  8
0
  5
716
 10
3103.15
 20
1850.73
 30
0.000000
  70
    32
  0
VERTEX
  8
0
  5
717
 10
3103.17
 20
1850.72
 30
0.000000
  70
    32
  0
VERTEX
  8
0
  5
718
 10
3103.18
 20
1850.72
 30
0.000000
  70
    32
  0
VERTEX
  8
0
  5
719
 10
3103.20
 20
1850.71
 30
0.000000
  70
    32
  0
VERTEX
  8
0
  5
71A
 10
3103.22
 20
1850.70
 30
0.000000
  70
    32
  0
VERTEX
  8
0
  5
71B
 10
3103.23
 20
1850.69
 30
0.000000
  70
    32
  0
VERTEX
  8
0
  5
71C
 10
3103.25
 20
1850.68
 30
0.000000
  70
    32
  0
VERTEX
  8
0
  5
71D
 10
3103.27
 20
1850.67
 30
0.000000
  70
    32
  0
VERTEX
  8
0
  5
71E
 10
3103.28
 20
1850.66
 30
0.000000
  70
    32
  0
VERTEX
  8
0
  5
71F
 10
3103.30
 20
1850.66
 30
0.000000
  70
    32
  0
VERTEX
  8
0
  5
720
 10
3103.32
 20
1850.65
 30
0.000000
  70
    32
  0
VERTEX
  8
0
  5
721
 10
3103.34
 20
1850.64
 30
0.000000
  70
    32
  0
VERTEX
  8
0
  5
722
 10
3103.35
 20
1850.63
 30
0.000000
  70
    32
  0
VERTEX
  8
0
  5
723
 10
3103.37
 20
1850.62
 30
0.000000
  70
    32
  0
VERTEX
  8
0
  5
724
 10
3103.39
 20
1850.61
 30
0.000000
  70
    32
  0
VERTEX
  8
0
  5
725
 10
3103.40
 20
1850.60
 30
0.000000
  70
    32
  0
VERTEX
  8
0
  5
726
 10
3103.42
 20
1850.59
 30
0.000000
  70
    32
  0
VERTEX
  8
0
  5
727
 10
3103.43
 20
1850.58
 30
0.000000
  70
    32
  0
VERTEX
  8
0
  5
728
 10
3103.45
 20
1850.57
 30
0.000000
  70
    32
  0
VERTEX
  8
0
  5
729
 10
3103.47
 20
1850.56
 30
0.000000
  70
    32
  0
VERTEX
  8
0
  5
72A
 10
3103.48
 20
1850.55
 30
0.000000
  70
    32
  0
VERTEX
  8
0
  5
72B
 10
3103.50
 20
1850.54
 30
0.000000
  70
    32
  0
VERTEX
  8
0
  5
72C
 10
3103.52
 20
1850.53
 30
0.000000
  70
    32
  0
VERTEX
  8
0
  5
72D
 10
3103.53
 20
1850.52
 30
0.000000
  70
    32
  0
VERTEX
  8
0
  5
72E
 10
3103.55
 20
1850.51
 30
0.000000
  70
    32
  0
VERTEX
  8
0
  5
72F
 10
3103.56
 20
1850.50
 30
0.000000
  70
    32
  0
VERTEX
  8
0
  5
730
 10
3103.58
 20
1850.49
 30
0.000000
  70
    32
  0
VERTEX
  8
0
  5
731
 10
3103.60
 20
1850.48
 30
0.000000
  70
    32
  0
VERTEX
  8
0
  5
732
 10
3103.61
 20
1850.47
 30
0.000000
  70
    32
  0
VERTEX
  8
0
  5
733
 10
3103.63
 20
1850.46
 30
0.000000
  70
    32
  0
VERTEX
  8
0
  5
734
 10
3103.64
 20
1850.45
 30
0.000000
  70
    32
  0
VERTEX
  8
0
  5
735
 10
3103.66
 20
1850.44
 30
0.000000
  70
    32
  0
VERTEX
  8
0
  5
736
 10
3103.68
 20
1850.43
 30
0.000000
  70
    32
  0
VERTEX
  8
0
  5
737
 10
3103.69
 20
1850.42
 30
0.000000
  70
    32
  0
VERTEX
  8
0
  5
738
 10
3103.71
 20
1850.41
 30
0.000000
  70
    32
  0
VERTEX
  8
0
  5
739
 10
3103.72
 20
1850.40
 30
0.000000
  70
    32
  0
VERTEX
  8
0
  5
73A
 10
3103.74
 20
1850.39
 30
0.000000
  70
    32
  0
VERTEX
  8
0
  5
73B
 10
3103.75
 20
1850.38
 30
0.000000
  70
    32
  0
VERTEX
  8
0
  5
73C
 10
3103.77
 20
1850.37
 30
0.000000
  70
    32
  0
VERTEX
  8
0
  5
73D
 10
3103.79
 20
1850.36
 30
0.000000
  70
    32
  0
VERTEX
  8
0
  5
73E
 10
3103.80
 20
1850.35
 30
0.000000
  70
    32
  0
VERTEX
  8
0
  5
73F
 10
3103.82
 20
1850.33
 30
0.000000
  70
    32
  0
VERTEX
  8
0
  5
740
 10
3103.83
 20
1850.32
 30
0.000000
  70
    32
  0
VERTEX
  8
0
  5
741
 10
3103.85
 20
1850.31
 30
0.000000
  70
    32
  0
VERTEX
  8
0
  5
742
 10
3103.86
 20
1850.30
 30
0.000000
  70
    32
  0
VERTEX
  8
0
  5
743
 10
3103.88
 20
1850.29
 30
0.000000
  70
    32
  0
VERTEX
  8
0
  5
744
 10
3103.89
 20
1850.28
 30
0.000000
  70
    32
  0
VERTEX
  8
0
  5
745
 10
3103.91
 20
1850.26
 30
0.000000
  70
    32
  0
VERTEX
  8
0
  5
746
 10
3103.92
 20
1850.25
 30
0.000000
  70
    32
  0
VERTEX
  8
0
  5
747
 10
3103.94
 20
1850.24
 30
0.000000
  70
    32
  0
VERTEX
  8
0
  5
748
 10
3103.95
 20
1850.23
 30
0.000000
  70
    32
  0
VERTEX
  8
0
  5
749
 10
3103.96
 20
1850.22
 30
0.000000
  70
    32
  0
VERTEX
  8
0
  5
74A
 10
3103.98
 20
1850.20
 30
0.000000
  70
    32
  0
VERTEX
  8
0
  5
74B
 10
3103.99
 20
1850.19
 30
0.000000
  70
    32
  0
VERTEX
  8
0
  5
74C
 10
3104.01
 20
1850.18
 30
0.000000
  70
    32
  0
VERTEX
  8
0
  5
74D
 10
3104.02
 20
1850.17
 30
0.000000
  70
    32
  0
VERTEX
  8
0
  5
74E
 10
3104.04
 20
1850.16
 30
0.000000
  70
    32
  0
VERTEX
  8
0
  5
74F
 10
3104.05
 20
1850.14
 30
0.000000
  70
    32
  0
VERTEX
  8
0
  5
750
 10
3104.07
 20
1850.13
 30
0.000000
  70
    32
  0
VERTEX
  8
0
  5
751
 10
3104.08
 20
1850.12
 30
0.000000
  70
    32
  0
VERTEX
  8
0
  5
752
 10
3104.09
 20
1850.10
 30
0.000000
  70
    32
  0
VERTEX
  8
0
  5
753
 10
3104.11
 20
1850.09
 30
0.000000
  70
    32
  0
VERTEX
  8
0
  5
754
 10
3104.12
 20
1850.08
 30
0.000000
  70
    32
  0
VERTEX
  8
0
  5
755
 10
3104.14
 20
1850.07
 30
0.000000
  70
    32
  0
VERTEX
  8
0
  5
756
 10
3104.15
 20
1850.05
 30
0.000000
  70
    32
  0
VERTEX
  8
0
  5
757
 10
3104.16
 20
1850.04
 30
0.000000
  70
    32
  0
VERTEX
  8
0
  5
758
 10
3104.18
 20
1850.03
 30
0.000000
  70
    32
  0
VERTEX
  8
0
  5
759
 10
3104.19
 20
1850.01
 30
0.000000
  70
    32
  0
VERTEX
  8
0
  5
75A
 10
3104.20
 20
1850.00
 30
0.000000
  70
    32
  0
VERTEX
  8
0
  5
75B
 10
3104.22
 20
1849.99
 30
0.000000
  70
    32
  0
VERTEX
  8
0
  5
75C
 10
3104.23
 20
1849.97
 30
0.000000
  70
    32
  0
VERTEX
  8
0
  5
75D
 10
3104.24
 20
1849.96
 30
0.000000
  70
    32
  0
VERTEX
  8
0
  5
75E
 10
3104.26
 20
1849.95
 30
0.000000
  70
    32
  0
VERTEX
  8
0
  5
75F
 10
3104.27
 20
1849.93
 30
0.000000
  70
    32
  0
VERTEX
  8
0
  5
760
 10
3104.28
 20
1849.92
 30
0.000000
  70
    32
  0
VERTEX
  8
0
  5
761
 10
3104.29
 20
1849.90
 30
0.000000
  70
    32
  0
VERTEX
  8
0
  5
762
 10
3104.31
 20
1849.89
 30
0.000000
  70
    32
  0
VERTEX
  8
0
  5
763
 10
3104.32
 20
1849.88
 30
0.000000
  70
    32
  0
VERTEX
  8
0
  5
764
 10
3104.33
 20
1849.86
 30
0.000000
  70
    32
  0
VERTEX
  8
0
  5
765
 10
3104.34
 20
1849.85
 30
0.000000
  70
    32
  0
VERTEX
  8
0
  5
766
 10
3104.36
 20
1849.83
 30
0.000000
  70
    32
  0
VERTEX
  8
0
  5
767
 10
3104.37
 20
1849.82
 30
0.000000
  70
    32
  0
VERTEX
  8
0
  5
768
 10
3104.38
 20
1849.80
 30
0.000000
  70
    32
  0
VERTEX
  8
0
  5
769
 10
3104.39
 20
1849.79
 30
0.000000
  70
    32
  0
VERTEX
  8
0
  5
76A
 10
3104.41
 20
1849.77
 30
0.000000
  70
    32
  0
VERTEX
  8
0
  5
76B
 10
3104.42
 20
1849.76
 30
0.000000
  70
    32
  0
VERTEX
  8
0
  5
76C
 10
3104.43
 20
1849.74
 30
0.000000
  70
    32
  0
VERTEX
  8
0
  5
76D
 10
3104.44
 20
1849.73
 30
0.000000
  70
    32
  0
VERTEX
  8
0
  5
76E
 10
3104.45
 20
1849.71
 30
0.000000
  70
    32
  0
VERTEX
  8
0
  5
76F
 10
3104.46
 20
1849.70
 30
0.000000
  70
    32
  0
VERTEX
  8
0
  5
770
 10
3104.48
 20
1849.68
 30
0.000000
  70
    32
  0
VERTEX
  8
0
  5
771
 10
3104.49
 20
1849.67
 30
0.000000
  70
    32
  0
VERTEX
  8
0
  5
772
 10
3104.50
 20
1849.65
 30
0.000000
  70
    32
  0
VERTEX
  8
0
  5
773
 10
3104.51
 20
1849.64
 30
0.000000
  70
    32
  0
VERTEX
  8
0
  5
774
 10
3104.52
 20
1849.62
 30
0.000000
  70
    32
  0
VERTEX
  8
0
  5
775
 10
3104.53
 20
1849.61
 30
0.000000
  70
    32
  0
VERTEX
  8
0
  5
776
 10
3104.54
 20
1849.59
 30
0.000000
  70
    32
  0
VERTEX
  8
0
  5
777
 10
3104.55
 20
1849.58
 30
0.000000
  70
    32
  0
VERTEX
  8
0
  5
778
 10
3104.56
 20
1849.56
 30
0.000000
  70
    32
  0
VERTEX
  8
0
  5
779
 10
3104.57
 20
1849.54
 30
0.000000
  70
    32
  0
VERTEX
  8
0
  5
77A
 10
3104.58
 20
1849.53
 30
0.000000
  70
    32
  0
VERTEX
  8
0
  5
77B
 10
3104.59
 20
1849.51
 30
0.000000
  70
    32
  0
VERTEX
  8
0
  5
77C
 10
3104.60
 20
1849.50
 30
0.000000
  70
    32
  0
VERTEX
  8
0
  5
77D
 10
3104.61
 20
1849.48
 30
0.000000
  70
    32
  0
VERTEX
  8
0
  5
77E
 10
3104.62
 20
1849.46
 30
0.000000
  70
    32
  0
VERTEX
  8
0
  5
77F
 10
3104.63
 20
1849.45
 30
0.000000
  70
    32
  0
VERTEX
  8
0
  5
780
 10
3104.64
 20
1849.43
 30
0.000000
  70
    32
  0
VERTEX
  8
0
  5
781
 10
3104.65
 20
1849.41
 30
0.000000
  70
    32
  0
VERTEX
  8
0
  5
782
 10
3104.66
 20
1849.40
 30
0.000000
  70
    32
  0
VERTEX
  8
0
  5
783
 10
3104.67
 20
1849.38
 30
0.000000
  70
    32
  0
VERTEX
  8
0
  5
784
 10
3104.68
 20
1849.36
 30
0.000000
  70
    32
  0
VERTEX
  8
0
  5
785
 10
3104.69
 20
1849.35
 30
0.000000
  70
    32
  0
VERTEX
  8
0
  5
786
 10
3104.70
 20
1849.33
 30
0.000000
  70
    32
  0
VERTEX
  8
0
  5
787
 10
3104.71
 20
1849.31
 30
0.000000
  70
    32
  0
VERTEX
  8
0
  5
788
 10
3104.71
 20
1849.30
 30
0.000000
  70
    32
  0
VERTEX
  8
0
  5
789
 10
3104.72
 20
1849.28
 30
0.000000
  70
    32
  0
VERTEX
  8
0
  5
78A
 10
3104.73
 20
1849.26
 30
0.000000
  70
    32
  0
VERTEX
  8
0
  5
78B
 10
3104.74
 20
1849.25
 30
0.000000
  70
    32
  0
VERTEX
  8
0
  5
78C
 10
3104.75
 20
1849.23
 30
0.000000
  70
    32
  0
VERTEX
  8
0
  5
78D
 10
3104.76
 20
1849.21
 30
0.000000
  70
    32
  0
VERTEX
  8
0
  5
78E
 10
3104.76
 20
1849.19
 30
0.000000
  70
    32
  0
VERTEX
  8
0
  5
78F
 10
3104.77
 20
1849.18
 30
0.000000
  70
    32
  0
VERTEX
  8
0
  5
790
 10
3104.78
 20
1849.16
 30
0.000000
  70
    32
  0
VERTEX
  8
0
  5
791
 10
3104.79
 20
1849.14
 30
0.000000
  70
    32
  0
VERTEX
  8
0
  5
792
 10
3104.79
 20
1849.12
 30
0.000000
  70
    32
  0
VERTEX
  8
0
  5
793
 10
3104.80
 20
1849.11
 30
0.000000
  70
    32
  0
VERTEX
  8
0
  5
794
 10
3104.81
 20
1849.09
 30
0.000000
  70
    32
  0
VERTEX
  8
0
  5
795
 10
3104.81
 20
1849.07
 30
0.000000
  70
    32
  0
VERTEX
  8
0
  5
796
 10
3104.82
 20
1849.05
 30
0.000000
  70
    32
  0
VERTEX
  8
0
  5
797
 10
3104.83
 20
1849.04
 30
0.000000
  70
    32
  0
VERTEX
  8
0
  5
798
 10
3104.83
 20
1849.02
 30
0.000000
  70
    32
  0
VERTEX
  8
0
  5
799
 10
3104.84
 20
1849.00
 30
0.000000
  70
    32
  0
VERTEX
  8
0
  5
79A
 10
3104.84
 20
1848.98
 30
0.000000
  70
    32
  0
VERTEX
  8
0
  5
79B
 10
3104.85
 20
1848.96
 30
0.000000
  70
    32
  0
VERTEX
  8
0
  5
79C
 10
3104.86
 20
1848.95
 30
0.000000
  70
    32
  0
VERTEX
  8
0
  5
79D
 10
3104.86
 20
1848.93
 30
0.000000
  70
    32
  0
VERTEX
  8
0
  5
79E
 10
3104.87
 20
1848.91
 30
0.000000
  70
    32
  0
VERTEX
  8
0
  5
79F
 10
3104.87
 20
1848.89
 30
0.000000
  70
    32
  0
VERTEX
  8
0
  5
7A0
 10
3104.88
 20
1848.87
 30
0.000000
  70
    32
  0
VERTEX
  8
0
  5
7A1
 10
3104.88
 20
1848.85
 30
0.000000
  70
    32
  0
VERTEX
  8
0
  5
7A2
 10
3104.89
 20
1848.84
 30
0.000000
  70
    32
  0
VERTEX
  8
0
  5
7A3
 10
3104.89
 20
1848.82
 30
0.000000
  70
    32
  0
VERTEX
  8
0
  5
7A4
 10
3104.90
 20
1848.80
 30
0.000000
  70
    32
  0
VERTEX
  8
0
  5
7A5
 10
3104.90
 20
1848.78
 30
0.000000
  70
    32
  0
VERTEX
  8
0
  5
7A6
 10
3104.90
 20
1848.76
 30
0.000000
  70
    32
  0
VERTEX
  8
0
  5
7A7
 10
3104.91
 20
1848.74
 30
0.000000
  70
    32
  0
VERTEX
  8
0
  5
7A8
 10
3104.91
 20
1848.72
 30
0.000000
  70
    32
  0
VERTEX
  8
0
  5
7A9
 10
3104.92
 20
1848.71
 30
0.000000
  70
    32
  0
VERTEX
  8
0
  5
7AA
 10
3104.92
 20
1848.69
 30
0.000000
  70
    32
  0
VERTEX
  8
0
  5
7AB
 10
3104.92
 20
1848.67
 30
0.000000
  70
    32
  0
VERTEX
  8
0
  5
7AC
 10
3104.93
 20
1848.65
 30
0.000000
  70
    32
  0
VERTEX
  8
0
  5
7AD
 10
3104.93
 20
1848.63
 30
0.000000
  70
    32
  0
VERTEX
  8
0
  5
7AE
 10
3104.93
 20
1848.61
 30
0.000000
  70
    32
  0
VERTEX
  8
0
  5
7AF
 10
3104.93
 20
1848.59
 30
0.000000
  70
    32
  0
VERTEX
  8
0
  5
7B0
 10
3104.94
 20
1848.57
 30
0.000000
  70
    32
  0
VERTEX
  8
0
  5
7B1
 10
3104.94
 20
1848.56
 30
0.000000
  70
    32
  0
VERTEX
  8
0
  5
7B2
 10
3104.94
 20
1848.54
 30
0.000000
  70
    32
  0
VERTEX
  8
0
  5
7B3
 10
3104.94
 20
1848.52
 30
0.000000
  70
    32
  0
VERTEX
  8
0
  5
7B4
 10
3104.95
 20
1848.50
 30
0.000000
  70
    32
  0
VERTEX
  8
0
  5
7B5
 10
3104.95
 20
1848.48
 30
0.000000
  70
    32
  0
VERTEX
  8
0
  5
7B6
 10
3104.95
 20
1848.46
 30
0.000000
  70
    32
  0
VERTEX
  8
0
  5
7B7
 10
3104.95
 20
1848.44
 30
0.000000
  70
    32
  0
VERTEX
  8
0
  5
7B8
 10
3104.95
 20
1848.42
 30
0.000000
  70
    32
  0
VERTEX
  8
0
  5
7B9
 10
3104.95
 20
1848.40
 30
0.000000
  70
    32
  0
VERTEX
  8
0
  5
7BA
 10
3104.95
 20
1848.38
 30
0.000000
  70
    32
  0
VERTEX
  8
0
  5
7BB
 10
3104.95
 20
1848.37
 30
0.000000
  70
    32
  0
VERTEX
  8
0
  5
7BC
 10
3104.95
 20
1848.35
 30
0.000000
  70
    32
  0
VERTEX
  8
0
  5
7BD
 10
3104.95
 20
1848.33
 30
0.000000
  70
    32
  0
VERTEX
  8
0
  5
7BE
 10
3104.95
 20
1848.31
 30
0.000000
  70
    32
  0
SEQEND
  8
0
  5
7BF
  0
LINE
  5
2EB
  8
0
 10
3076.656830177405
 20
1862.668996502905
 30
0.0
 11
3092.4541388859352
 21
1862.668996502905
 31
0.0
  0
LINE
  5
2EC
  8
0
 10
3092.4541388859352
 20
1855.6235736154649
 30
0.0
 11
3075.9541388859352
 21
1855.6235736154649
 31
0.0
  0
LINE
  5
2ED
  8
0
 10
3092.4541388859352
 20
1851.2071334663749
 30
0.0
 11
3083.9541388859352
 21
1851.2071334663749
 31
0.0
  0
LINE
  5
2EE
  8
0
 10
3079.9541388859352
 20
1848.309159280175
 30
0.0
 11
3079.9541388859352
 21
1837.621140020965
 31
0.0
  0
LINE
  5
2EF
  8
0
 10
3075.9541388859352
 20
1855.6235736154649
 30
0.0
 11
3075.9541388859352
 21
1837.621140020965
 31
0.0
  0
ARC
  5
2F0
  8
0
 10
2286.222314047845
 20
1937.947028791795
 30
0.0
 40
794.01102412640012
 50
354.04885050077672
 51
354.55977180176779
  0
ARC
  5
2F1
  8
0
 10
3092.4546351366948
 20
1848.4413090385549
 30
0.0
 40
22.774314990419999
 50
269.71608252766492
 51
269.99875152904809
  0
ARC
  5
2F2
  8
0
 10
3092.4541388859352
 20
1844.168996502905
 30
0.0
 40
4.25
 50
90.0
 51
270.0
  0
ARC
  5
2F3
  8
0
 10
3092.4541388859352
 20
1844.168996502905
 30
0.0
 40
2.6000000000000001
 50
90.0
 51
270.0
  0
POLYLINE
  8
0
  5
7C0
  66
     1
 10
0.000000
 20
0.000000
 30
0.000000
  70
     8
  0
VERTEX
  8
0
  5
7C1
 10
3075.95
 20
1837.62
 30
0.000000
  70
    32
  0
VERTEX
  8
0
  5
7C2
 10
3075.95
 20
1837.59
 30
0.000000
  70
    32
  0
VERTEX
  8
0
  5
7C3
 10
3075.95
 20
1837.56
 30
0.000000
  70
    32
  0
VERTEX
  8
0
  5
7C4
 10
3075.95
 20
1837.53
 30
0.000000
  70
    32
  0
VERTEX
  8
0
  5
7C5
 10
3075.95
 20
1837.50
 30
0.000000
  70
    32
  0
VERTEX
  8
0
  5
7C6
 10
3075.96
 20
1837.47
 30
0.000000
  70
    32
  0
VERTEX
  8
0
  5
7C7
 10
3075.96
 20
1837.44
 30
0.000000
  70
    32
  0
VERTEX
  8
0
  5
7C8
 10
3075.96
 20
1837.41
 30
0.000000
  70
    32
  0
VERTEX
  8
0
  5
7C9
 10
3075.96
 20
1837.38
 30
0.000000
  70
    32
  0
VERTEX
  8
0
  5
7CA
 10
3075.96
 20
1837.35
 30
0.000000
  70
    32
  0
VERTEX
  8
0
  5
7CB
 10
3075.96
 20
1837.32
 30
0.000000
  70
    32
  0
VERTEX
  8
0
  5
7CC
 10
3075.96
 20
1837.29
 30
0.000000
  70
    32
  0
VERTEX
  8
0
  5
7CD
 10
3075.96
 20
1837.27
 30
0.000000
  70
    32
  0
VERTEX
  8
0
  5
7CE
 10
3075.96
 20
1837.24
 30
0.000000
  70
    32
  0
VERTEX
  8
0
  5
7CF
 10
3075.96
 20
1837.21
 30
0.000000
  70
    32
  0
VERTEX
  8
0
  5
7D0
 10
3075.97
 20
1837.18
 30
0.000000
  70
    32
  0
VERTEX
  8
0
  5
7D1
 10
3075.97
 20
1837.15
 30
0.000000
  70
    32
  0
VERTEX
  8
0
  5
7D2
 10
3075.97
 20
1837.12
 30
0.000000
  70
    32
  0
VERTEX
  8
0
  5
7D3
 10
3075.97
 20
1837.09
 30
0.000000
  70
    32
  0
VERTEX
  8
0
  5
7D4
 10
3075.97
 20
1837.06
 30
0.000000
  70
    32
  0
VERTEX
  8
0
  5
7D5
 10
3075.97
 20
1837.03
 30
0.000000
  70
    32
  0
VERTEX
  8
0
  5
7D6
 10
3075.98
 20
1837.00
 30
0.000000
  70
    32
  0
VERTEX
  8
0
  5
7D7
 10
3075.98
 20
1836.97
 30
0.000000
  70
    32
  0
VERTEX
  8
0
  5
7D8
 10
3075.98
 20
1836.94
 30
0.000000
  70
    32
  0
VERTEX
  8
0
  5
7D9
 10
3075.98
 20
1836.91
 30
0.000000
  70
    32
  0
VERTEX
  8
0
  5
7DA
 10
3075.99
 20
1836.88
 30
0.000000
  70
    32
  0
VERTEX
  8
0
  5
7DB
 10
3075.99
 20
1836.85
 30
0.000000
  70
    32
  0
VERTEX
  8
0
  5
7DC
 10
3075.99
 20
1836.82
 30
0.000000
  70
    32
  0
VERTEX
  8
0
  5
7DD
 10
3075.99
 20
1836.79
 30
0.000000
  70
    32
  0
VERTEX
  8
0
  5
7DE
 10
3076.00
 20
1836.76
 30
0.000000
  70
    32
  0
VERTEX
  8
0
  5
7DF
 10
3076.00
 20
1836.73
 30
0.000000
  70
    32
  0
VERTEX
  8
0
  5
7E0
 10
3076.00
 20
1836.70
 30
0.000000
  70
    32
  0
VERTEX
  8
0
  5
7E1
 10
3076.01
 20
1836.67
 30
0.000000
  70
    32
  0
VERTEX
  8
0
  5
7E2
 10
3076.01
 20
1836.64
 30
0.000000
  70
    32
  0
VERTEX
  8
0
  5
7E3
 10
3076.01
 20
1836.61
 30
0.000000
  70
    32
  0
VERTEX
  8
0
  5
7E4
 10
3076.02
 20
1836.58
 30
0.000000
  70
    32
  0
VERTEX
  8
0
  5
7E5
 10
3076.02
 20
1836.55
 30
0.000000
  70
    32
  0
VERTEX
  8
0
  5
7E6
 10
3076.02
 20
1836.53
 30
0.000000
  70
    32
  0
VERTEX
  8
0
  5
7E7
 10
3076.03
 20
1836.50
 30
0.000000
  70
    32
  0
VERTEX
  8
0
  5
7E8
 10
3076.03
 20
1836.47
 30
0.000000
  70
    32
  0
VERTEX
  8
0
  5
7E9
 10
3076.04
 20
1836.44
 30
0.000000
  70
    32
  0
VERTEX
  8
0
  5
7EA
 10
3076.04
 20
1836.41
 30
0.000000
  70
    32
  0
VERTEX
  8
0
  5
7EB
 10
3076.04
 20
1836.38
 30
0.000000
  70
    32
  0
VERTEX
  8
0
  5
7EC
 10
3076.05
 20
1836.35
 30
0.000000
  70
    32
  0
VERTEX
  8
0
  5
7ED
 10
3076.05
 20
1836.32
 30
0.000000
  70
    32
  0
VERTEX
  8
0
  5
7EE
 10
3076.06
 20
1836.29
 30
0.000000
  70
    32
  0
VERTEX
  8
0
  5
7EF
 10
3076.06
 20
1836.26
 30
0.000000
  70
    32
  0
VERTEX
  8
0
  5
7F0
 10
3076.07
 20
1836.23
 30
0.000000
  70
    32
  0
VERTEX
  8
0
  5
7F1
 10
3076.07
 20
1836.20
 30
0.000000
  70
    32
  0
VERTEX
  8
0
  5
7F2
 10
3076.08
 20
1836.17
 30
0.000000
  70
    32
  0
VERTEX
  8
0
  5
7F3
 10
3076.08
 20
1836.14
 30
0.000000
  70
    32
  0
VERTEX
  8
0
  5
7F4
 10
3076.09
 20
1836.11
 30
0.000000
  70
    32
  0
VERTEX
  8
0
  5
7F5
 10
3076.09
 20
1836.08
 30
0.000000
  70
    32
  0
VERTEX
  8
0
  5
7F6
 10
3076.10
 20
1836.05
 30
0.000000
  70
    32
  0
VERTEX
  8
0
  5
7F7
 10
3076.10
 20
1836.03
 30
0.000000
  70
    32
  0
VERTEX
  8
0
  5
7F8
 10
3076.11
 20
1836.00
 30
0.000000
  70
    32
  0
VERTEX
  8
0
  5
7F9
 10
3076.11
 20
1835.97
 30
0.000000
  70
    32
  0
VERTEX
  8
0
  5
7FA
 10
3076.12
 20
1835.94
 30
0.000000
  70
    32
  0
VERTEX
  8
0
  5
7FB
 10
3076.13
 20
1835.91
 30
0.000000
  70
    32
  0
VERTEX
  8
0
  5
7FC
 10
3076.13
 20
1835.88
 30
0.000000
  70
    32
  0
VERTEX
  8
0
  5
7FD
 10
3076.14
 20
1835.85
 30
0.000000
  70
    32
  0
VERTEX
  8
0
  5
7FE
 10
3076.14
 20
1835.82
 30
0.000000
  70
    32
  0
VERTEX
  8
0
  5
7FF
 10
3076.15
 20
1835.79
 30
0.000000
  70
    32
  0
VERTEX
  8
0
  5
800
 10
3076.16
 20
1835.76
 30
0.000000
  70
    32
  0
VERTEX
  8
0
  5
801
 10
3076.16
 20
1835.73
 30
0.000000
  70
    32
  0
VERTEX
  8
0
  5
802
 10
3076.17
 20
1835.70
 30
0.000000
  70
    32
  0
VERTEX
  8
0
  5
803
 10
3076.18
 20
1835.68
 30
0.000000
  70
    32
  0
VERTEX
  8
0
  5
804
 10
3076.18
 20
1835.65
 30
0.000000
  70
    32
  0
VERTEX
  8
0
  5
805
 10
3076.19
 20
1835.62
 30
0.000000
  70
    32
  0
VERTEX
  8
0
  5
806
 10
3076.20
 20
1835.59
 30
0.000000
  70
    32
  0
VERTEX
  8
0
  5
807
 10
3076.20
 20
1835.56
 30
0.000000
  70
    32
  0
VERTEX
  8
0
  5
808
 10
3076.21
 20
1835.53
 30
0.000000
  70
    32
  0
VERTEX
  8
0
  5
809
 10
3076.22
 20
1835.50
 30
0.000000
  70
    32
  0
VERTEX
  8
0
  5
80A
 10
3076.22
 20
1835.47
 30
0.000000
  70
    32
  0
VERTEX
  8
0
  5
80B
 10
3076.23
 20
1835.44
 30
0.000000
  70
    32
  0
VERTEX
  8
0
  5
80C
 10
3076.24
 20
1835.42
 30
0.000000
  70
    32
  0
VERTEX
  8
0
  5
80D
 10
3076.25
 20
1835.39
 30
0.000000
  70
    32
  0
VERTEX
  8
0
  5
80E
 10
3076.25
 20
1835.36
 30
0.000000
  70
    32
  0
VERTEX
  8
0
  5
80F
 10
3076.26
 20
1835.33
 30
0.000000
  70
    32
  0
VERTEX
  8
0
  5
810
 10
3076.27
 20
1835.30
 30
0.000000
  70
    32
  0
VERTEX
  8
0
  5
811
 10
3076.28
 20
1835.27
 30
0.000000
  70
    32
  0
VERTEX
  8
0
  5
812
 10
3076.28
 20
1835.24
 30
0.000000
  70
    32
  0
VERTEX
  8
0
  5
813
 10
3076.29
 20
1835.21
 30
0.000000
  70
    32
  0
VERTEX
  8
0
  5
814
 10
3076.30
 20
1835.19
 30
0.000000
  70
    32
  0
VERTEX
  8
0
  5
815
 10
3076.31
 20
1835.16
 30
0.000000
  70
    32
  0
VERTEX
  8
0
  5
816
 10
3076.32
 20
1835.13
 30
0.000000
  70
    32
  0
VERTEX
  8
0
  5
817
 10
3076.33
 20
1835.10
 30
0.000000
  70
    32
  0
VERTEX
  8
0
  5
818
 10
3076.33
 20
1835.07
 30
0.000000
  70
    32
  0
VERTEX
  8
0
  5
819
 10
3076.34
 20
1835.04
 30
0.000000
  70
    32
  0
VERTEX
  8
0
  5
81A
 10
3076.35
 20
1835.01
 30
0.000000
  70
    32
  0
VERTEX
  8
0
  5
81B
 10
3076.36
 20
1834.99
 30
0.000000
  70
    32
  0
VERTEX
  8
0
  5
81C
 10
3076.37
 20
1834.96
 30
0.000000
  70
    32
  0
VERTEX
  8
0
  5
81D
 10
3076.38
 20
1834.93
 30
0.000000
  70
    32
  0
VERTEX
  8
0
  5
81E
 10
3076.39
 20
1834.90
 30
0.000000
  70
    32
  0
VERTEX
  8
0
  5
81F
 10
3076.40
 20
1834.87
 30
0.000000
  70
    32
  0
VERTEX
  8
0
  5
820
 10
3076.41
 20
1834.84
 30
0.000000
  70
    32
  0
VERTEX
  8
0
  5
821
 10
3076.42
 20
1834.82
 30
0.000000
  70
    32
  0
VERTEX
  8
0
  5
822
 10
3076.43
 20
1834.79
 30
0.000000
  70
    32
  0
VERTEX
  8
0
  5
823
 10
3076.43
 20
1834.76
 30
0.000000
  70
    32
  0
VERTEX
  8
0
  5
824
 10
3076.44
 20
1834.73
 30
0.000000
  70
    32
  0
VERTEX
  8
0
  5
825
 10
3076.45
 20
1834.70
 30
0.000000
  70
    32
  0
VERTEX
  8
0
  5
826
 10
3076.46
 20
1834.68
 30
0.000000
  70
    32
  0
VERTEX
  8
0
  5
827
 10
3076.47
 20
1834.65
 30
0.000000
  70
    32
  0
VERTEX
  8
0
  5
828
 10
3076.48
 20
1834.62
 30
0.000000
  70
    32
  0
VERTEX
  8
0
  5
829
 10
3076.49
 20
1834.59
 30
0.000000
  70
    32
  0
VERTEX
  8
0
  5
82A
 10
3076.50
 20
1834.56
 30
0.000000
  70
    32
  0
VERTEX
  8
0
  5
82B
 10
3076.51
 20
1834.54
 30
0.000000
  70
    32
  0
VERTEX
  8
0
  5
82C
 10
3076.52
 20
1834.51
 30
0.000000
  70
    32
  0
VERTEX
  8
0
  5
82D
 10
3076.53
 20
1834.48
 30
0.000000
  70
    32
  0
VERTEX
  8
0
  5
82E
 10
3076.55
 20
1834.45
 30
0.000000
  70
    32
  0
VERTEX
  8
0
  5
82F
 10
3076.56
 20
1834.42
 30
0.000000
  70
    32
  0
VERTEX
  8
0
  5
830
 10
3076.57
 20
1834.40
 30
0.000000
  70
    32
  0
VERTEX
  8
0
  5
831
 10
3076.58
 20
1834.37
 30
0.000000
  70
    32
  0
VERTEX
  8
0
  5
832
 10
3076.59
 20
1834.34
 30
0.000000
  70
    32
  0
VERTEX
  8
0
  5
833
 10
3076.60
 20
1834.31
 30
0.000000
  70
    32
  0
VERTEX
  8
0
  5
834
 10
3076.61
 20
1834.29
 30
0.000000
  70
    32
  0
VERTEX
  8
0
  5
835
 10
3076.62
 20
1834.26
 30
0.000000
  70
    32
  0
VERTEX
  8
0
  5
836
 10
3076.63
 20
1834.23
 30
0.000000
  70
    32
  0
VERTEX
  8
0
  5
837
 10
3076.64
 20
1834.20
 30
0.000000
  70
    32
  0
VERTEX
  8
0
  5
838
 10
3076.66
 20
1834.18
 30
0.000000
  70
    32
  0
VERTEX
  8
0
  5
839
 10
3076.67
 20
1834.15
 30
0.000000
  70
    32
  0
VERTEX
  8
0
  5
83A
 10
3076.68
 20
1834.12
 30
0.000000
  70
    32
  0
VERTEX
  8
0
  5
83B
 10
3076.69
 20
1834.09
 30
0.000000
  70
    32
  0
VERTEX
  8
0
  5
83C
 10
3076.70
 20
1834.07
 30
0.000000
  70
    32
  0
VERTEX
  8
0
  5
83D
 10
3076.71
 20
1834.04
 30
0.000000
  70
    32
  0
VERTEX
  8
0
  5
83E
 10
3076.73
 20
1834.01
 30
0.000000
  70
    32
  0
VERTEX
  8
0
  5
83F
 10
3076.74
 20
1833.98
 30
0.000000
  70
    32
  0
VERTEX
  8
0
  5
840
 10
3076.75
 20
1833.96
 30
0.000000
  70
    32
  0
VERTEX
  8
0
  5
841
 10
3076.76
 20
1833.93
 30
0.000000
  70
    32
  0
VERTEX
  8
0
  5
842
 10
3076.77
 20
1833.90
 30
0.000000
  70
    32
  0
VERTEX
  8
0
  5
843
 10
3076.79
 20
1833.88
 30
0.000000
  70
    32
  0
VERTEX
  8
0
  5
844
 10
3076.80
 20
1833.85
 30
0.000000
  70
    32
  0
VERTEX
  8
0
  5
845
 10
3076.81
 20
1833.82
 30
0.000000
  70
    32
  0
VERTEX
  8
0
  5
846
 10
3076.82
 20
1833.79
 30
0.000000
  70
    32
  0
VERTEX
  8
0
  5
847
 10
3076.84
 20
1833.77
 30
0.000000
  70
    32
  0
VERTEX
  8
0
  5
848
 10
3076.85
 20
1833.74
 30
0.000000
  70
    32
  0
VERTEX
  8
0
  5
849
 10
3076.86
 20
1833.71
 30
0.000000
  70
    32
  0
VERTEX
  8
0
  5
84A
 10
3076.87
 20
1833.69
 30
0.000000
  70
    32
  0
VERTEX
  8
0
  5
84B
 10
3076.89
 20
1833.66
 30
0.000000
  70
    32
  0
VERTEX
  8
0
  5
84C
 10
3076.90
 20
1833.63
 30
0.000000
  70
    32
  0
VERTEX
  8
0
  5
84D
 10
3076.91
 20
1833.61
 30
0.000000
  70
    32
  0
VERTEX
  8
0
  5
84E
 10
3076.93
 20
1833.58
 30
0.000000
  70
    32
  0
VERTEX
  8
0
  5
84F
 10
3076.94
 20
1833.55
 30
0.000000
  70
    32
  0
VERTEX
  8
0
  5
850
 10
3076.95
 20
1833.53
 30
0.000000
  70
    32
  0
VERTEX
  8
0
  5
851
 10
3076.97
 20
1833.50
 30
0.000000
  70
    32
  0
VERTEX
  8
0
  5
852
 10
3076.98
 20
1833.47
 30
0.000000
  70
    32
  0
VERTEX
  8
0
  5
853
 10
3076.99
 20
1833.45
 30
0.000000
  70
    32
  0
VERTEX
  8
0
  5
854
 10
3077.01
 20
1833.42
 30
0.000000
  70
    32
  0
VERTEX
  8
0
  5
855
 10
3077.02
 20
1833.39
 30
0.000000
  70
    32
  0
VERTEX
  8
0
  5
856
 10
3077.03
 20
1833.37
 30
0.000000
  70
    32
  0
VERTEX
  8
0
  5
857
 10
3077.05
 20
1833.34
 30
0.000000
  70
    32
  0
VERTEX
  8
0
  5
858
 10
3077.06
 20
1833.32
 30
0.000000
  70
    32
  0
VERTEX
  8
0
  5
859
 10
3077.08
 20
1833.29
 30
0.000000
  70
    32
  0
VERTEX
  8
0
  5
85A
 10
3077.09
 20
1833.26
 30
0.000000
  70
    32
  0
VERTEX
  8
0
  5
85B
 10
3077.10
 20
1833.24
 30
0.000000
  70
    32
  0
VERTEX
  8
0
  5
85C
 10
3077.12
 20
1833.21
 30
0.000000
  70
    32
  0
VERTEX
  8
0
  5
85D
 10
3077.13
 20
1833.19
 30
0.000000
  70
    32
  0
VERTEX
  8
0
  5
85E
 10
3077.15
 20
1833.16
 30
0.000000
  70
    32
  0
VERTEX
  8
0
  5
85F
 10
3077.16
 20
1833.13
 30
0.000000
  70
    32
  0
VERTEX
  8
0
  5
860
 10
3077.18
 20
1833.11
 30
0.000000
  70
    32
  0
SEQEND
  8
0
  5
861
  0
POLYLINE
  8
0
  5
862
  66
     1
 10
0.000000
 20
0.000000
 30
0.000000
  70
     8
  0
VERTEX
  8
0
  5
863
 10
3077.18
 20
1833.11
 30
0.000000
  70
    32
  0
VERTEX
  8
0
  5
864
 10
3077.21
 20
1833.05
 30
0.000000
  70
    32
  0
VERTEX
  8
0
  5
865
 10
3077.24
 20
1833.00
 30
0.000000
  70
    32
  0
VERTEX
  8
0
  5
866
 10
3077.27
 20
1832.95
 30
0.000000
  70
    32
  0
VERTEX
  8
0
  5
867
 10
3077.30
 20
1832.90
 30
0.000000
  70
    32
  0
VERTEX
  8
0
  5
868
 10
3077.33
 20
1832.84
 30
0.000000
  70
    32
  0
VERTEX
  8
0
  5
869
 10
3077.36
 20
1832.79
 30
0.000000
  70
    32
  0
VERTEX
  8
0
  5
86A
 10
3077.39
 20
1832.74
 30
0.000000
  70
    32
  0
VERTEX
  8
0
  5
86B
 10
3077.43
 20
1832.69
 30
0.000000
  70
    32
  0
VERTEX
  8
0
  5
86C
 10
3077.46
 20
1832.63
 30
0.000000
  70
    32
  0
VERTEX
  8
0
  5
86D
 10
3077.49
 20
1832.58
 30
0.000000
  70
    32
  0
VERTEX
  8
0
  5
86E
 10
3077.53
 20
1832.53
 30
0.000000
  70
    32
  0
VERTEX
  8
0
  5
86F
 10
3077.56
 20
1832.48
 30
0.000000
  70
    32
  0
VERTEX
  8
0
  5
870
 10
3077.59
 20
1832.43
 30
0.000000
  70
    32
  0
VERTEX
  8
0
  5
871
 10
3077.63
 20
1832.38
 30
0.000000
  70
    32
  0
VERTEX
  8
0
  5
872
 10
3077.66
 20
1832.33
 30
0.000000
  70
    32
  0
VERTEX
  8
0
  5
873
 10
3077.70
 20
1832.27
 30
0.000000
  70
    32
  0
VERTEX
  8
0
  5
874
 10
3077.73
 20
1832.22
 30
0.000000
  70
    32
  0
VERTEX
  8
0
  5
875
 10
3077.77
 20
1832.17
 30
0.000000
  70
    32
  0
VERTEX
  8
0
  5
876
 10
3077.80
 20
1832.12
 30
0.000000
  70
    32
  0
VERTEX
  8
0
  5
877
 10
3077.84
 20
1832.07
 30
0.000000
  70
    32
  0
VERTEX
  8
0
  5
878
 10
3077.87
 20
1832.02
 30
0.000000
  70
    32
  0
VERTEX
  8
0
  5
879
 10
3077.91
 20
1831.97
 30
0.000000
  70
    32
  0
VERTEX
  8
0
  5
87A
 10
3077.95
 20
1831.92
 30
0.000000
  70
    32
  0
VERTEX
  8
0
  5
87B
 10
3077.99
 20
1831.88
 30
0.000000
  70
    32
  0
VERTEX
  8
0
  5
87C
 10
3078.02
 20
1831.83
 30
0.000000
  70
    32
  0
VERTEX
  8
0
  5
87D
 10
3078.06
 20
1831.78
 30
0.000000
  70
    32
  0
VERTEX
  8
0
  5
87E
 10
3078.10
 20
1831.73
 30
0.000000
  70
    32
  0
VERTEX
  8
0
  5
87F
 10
3078.14
 20
1831.68
 30
0.000000
  70
    32
  0
VERTEX
  8
0
  5
880
 10
3078.17
 20
1831.63
 30
0.000000
  70
    32
  0
VERTEX
  8
0
  5
881
 10
3078.21
 20
1831.58
 30
0.000000
  70
    32
  0
VERTEX
  8
0
  5
882
 10
3078.25
 20
1831.54
 30
0.000000
  70
    32
  0
VERTEX
  8
0
  5
883
 10
3078.29
 20
1831.49
 30
0.000000
  70
    32
  0
VERTEX
  8
0
  5
884
 10
3078.33
 20
1831.44
 30
0.000000
  70
    32
  0
VERTEX
  8
0
  5
885
 10
3078.37
 20
1831.40
 30
0.000000
  70
    32
  0
VERTEX
  8
0
  5
886
 10
3078.41
 20
1831.35
 30
0.000000
  70
    32
  0
VERTEX
  8
0
  5
887
 10
3078.45
 20
1831.30
 30
0.000000
  70
    32
  0
VERTEX
  8
0
  5
888
 10
3078.49
 20
1831.25
 30
0.000000
  70
    32
  0
VERTEX
  8
0
  5
889
 10
3078.53
 20
1831.21
 30
0.000000
  70
    32
  0
VERTEX
  8
0
  5
88A
 10
3078.57
 20
1831.16
 30
0.000000
  70
    32
  0
VERTEX
  8
0
  5
88B
 10
3078.61
 20
1831.12
 30
0.000000
  70
    32
  0
VERTEX
  8
0
  5
88C
 10
3078.65
 20
1831.07
 30
0.000000
  70
    32
  0
VERTEX
  8
0
  5
88D
 10
3078.69
 20
1831.03
 30
0.000000
  70
    32
  0
VERTEX
  8
0
  5
88E
 10
3078.73
 20
1830.98
 30
0.000000
  70
    32
  0
VERTEX
  8
0
  5
88F
 10
3078.78
 20
1830.93
 30
0.000000
  70
    32
  0
VERTEX
  8
0
  5
890
 10
3078.82
 20
1830.89
 30
0.000000
  70
    32
  0
VERTEX
  8
0
  5
891
 10
3078.86
 20
1830.85
 30
0.000000
  70
    32
  0
VERTEX
  8
0
  5
892
 10
3078.90
 20
1830.80
 30
0.000000
  70
    32
  0
VERTEX
  8
0
  5
893
 10
3078.95
 20
1830.76
 30
0.000000
  70
    32
  0
VERTEX
  8
0
  5
894
 10
3078.99
 20
1830.71
 30
0.000000
  70
    32
  0
VERTEX
  8
0
  5
895
 10
3079.03
 20
1830.67
 30
0.000000
  70
    32
  0
VERTEX
  8
0
  5
896
 10
3079.08
 20
1830.63
 30
0.000000
  70
    32
  0
VERTEX
  8
0
  5
897
 10
3079.12
 20
1830.58
 30
0.000000
  70
    32
  0
VERTEX
  8
0
  5
898
 10
3079.16
 20
1830.54
 30
0.000000
  70
    32
  0
VERTEX
  8
0
  5
899
 10
3079.21
 20
1830.50
 30
0.000000
  70
    32
  0
VERTEX
  8
0
  5
89A
 10
3079.25
 20
1830.45
 30
0.000000
  70
    32
  0
VERTEX
  8
0
  5
89B
 10
3079.29
 20
1830.41
 30
0.000000
  70
    32
  0
VERTEX
  8
0
  5
89C
 10
3079.34
 20
1830.37
 30
0.000000
  70
    32
  0
VERTEX
  8
0
  5
89D
 10
3079.38
 20
1830.33
 30
0.000000
  70
    32
  0
VERTEX
  8
0
  5
89E
 10
3079.43
 20
1830.28
 30
0.000000
  70
    32
  0
VERTEX
  8
0
  5
89F
 10
3079.47
 20
1830.24
 30
0.000000
  70
    32
  0
VERTEX
  8
0
  5
8A0
 10
3079.52
 20
1830.20
 30
0.000000
  70
    32
  0
VERTEX
  8
0
  5
8A1
 10
3079.56
 20
1830.16
 30
0.000000
  70
    32
  0
VERTEX
  8
0
  5
8A2
 10
3079.61
 20
1830.12
 30
0.000000
  70
    32
  0
VERTEX
  8
0
  5
8A3
 10
3079.66
 20
1830.08
 30
0.000000
  70
    32
  0
VERTEX
  8
0
  5
8A4
 10
3079.70
 20
1830.04
 30
0.000000
  70
    32
  0
VERTEX
  8
0
  5
8A5
 10
3079.75
 20
1830.00
 30
0.000000
  70
    32
  0
VERTEX
  8
0
  5
8A6
 10
3079.79
 20
1829.95
 30
0.000000
  70
    32
  0
VERTEX
  8
0
  5
8A7
 10
3079.84
 20
1829.91
 30
0.000000
  70
    32
  0
VERTEX
  8
0
  5
8A8
 10
3079.89
 20
1829.87
 30
0.000000
  70
    32
  0
VERTEX
  8
0
  5
8A9
 10
3079.93
 20
1829.83
 30
0.000000
  70
    32
  0
VERTEX
  8
0
  5
8AA
 10
3079.98
 20
1829.80
 30
0.000000
  70
    32
  0
VERTEX
  8
0
  5
8AB
 10
3080.03
 20
1829.76
 30
0.000000
  70
    32
  0
VERTEX
  8
0
  5
8AC
 10
3080.08
 20
1829.72
 30
0.000000
  70
    32
  0
VERTEX
  8
0
  5
8AD
 10
3080.12
 20
1829.68
 30
0.000000
  70
    32
  0
VERTEX
  8
0
  5
8AE
 10
3080.17
 20
1829.64
 30
0.000000
  70
    32
  0
VERTEX
  8
0
  5
8AF
 10
3080.22
 20
1829.60
 30
0.000000
  70
    32
  0
VERTEX
  8
0
  5
8B0
 10
3080.27
 20
1829.56
 30
0.000000
  70
    32
  0
VERTEX
  8
0
  5
8B1
 10
3080.32
 20
1829.52
 30
0.000000
  70
    32
  0
VERTEX
  8
0
  5
8B2
 10
3080.36
 20
1829.49
 30
0.000000
  70
    32
  0
VERTEX
  8
0
  5
8B3
 10
3080.41
 20
1829.45
 30
0.000000
  70
    32
  0
VERTEX
  8
0
  5
8B4
 10
3080.46
 20
1829.41
 30
0.000000
  70
    32
  0
VERTEX
  8
0
  5
8B5
 10
3080.51
 20
1829.37
 30
0.000000
  70
    32
  0
VERTEX
  8
0
  5
8B6
 10
3080.56
 20
1829.34
 30
0.000000
  70
    32
  0
VERTEX
  8
0
  5
8B7
 10
3080.61
 20
1829.30
 30
0.000000
  70
    32
  0
VERTEX
  8
0
  5
8B8
 10
3080.66
 20
1829.26
 30
0.000000
  70
    32
  0
VERTEX
  8
0
  5
8B9
 10
3080.71
 20
1829.23
 30
0.000000
  70
    32
  0
VERTEX
  8
0
  5
8BA
 10
3080.76
 20
1829.19
 30
0.000000
  70
    32
  0
VERTEX
  8
0
  5
8BB
 10
3080.81
 20
1829.15
 30
0.000000
  70
    32
  0
VERTEX
  8
0
  5
8BC
 10
3080.86
 20
1829.12
 30
0.000000
  70
    32
  0
VERTEX
  8
0
  5
8BD
 10
3080.91
 20
1829.08
 30
0.000000
  70
    32
  0
VERTEX
  8
0
  5
8BE
 10
3080.96
 20
1829.05
 30
0.000000
  70
    32
  0
VERTEX
  8
0
  5
8BF
 10
3081.01
 20
1829.01
 30
0.000000
  70
    32
  0
VERTEX
  8
0
  5
8C0
 10
3081.06
 20
1828.98
 30
0.000000
  70
    32
  0
VERTEX
  8
0
  5
8C1
 10
3081.11
 20
1828.94
 30
0.000000
  70
    32
  0
VERTEX
  8
0
  5
8C2
 10
3081.16
 20
1828.91
 30
0.000000
  70
    32
  0
VERTEX
  8
0
  5
8C3
 10
3081.21
 20
1828.87
 30
0.000000
  70
    32
  0
VERTEX
  8
0
  5
8C4
 10
3081.26
 20
1828.84
 30
0.000000
  70
    32
  0
VERTEX
  8
0
  5
8C5
 10
3081.31
 20
1828.80
 30
0.000000
  70
    32
  0
VERTEX
  8
0
  5
8C6
 10
3081.36
 20
1828.77
 30
0.000000
  70
    32
  0
VERTEX
  8
0
  5
8C7
 10
3081.41
 20
1828.74
 30
0.000000
  70
    32
  0
VERTEX
  8
0
  5
8C8
 10
3081.47
 20
1828.70
 30
0.000000
  70
    32
  0
VERTEX
  8
0
  5
8C9
 10
3081.52
 20
1828.67
 30
0.000000
  70
    32
  0
VERTEX
  8
0
  5
8CA
 10
3081.57
 20
1828.64
 30
0.000000
  70
    32
  0
VERTEX
  8
0
  5
8CB
 10
3081.62
 20
1828.60
 30
0.000000
  70
    32
  0
VERTEX
  8
0
  5
8CC
 10
3081.67
 20
1828.57
 30
0.000000
  70
    32
  0
VERTEX
  8
0
  5
8CD
 10
3081.73
 20
1828.54
 30
0.000000
  70
    32
  0
VERTEX
  8
0
  5
8CE
 10
3081.78
 20
1828.51
 30
0.000000
  70
    32
  0
VERTEX
  8
0
  5
8CF
 10
3081.83
 20
1828.47
 30
0.000000
  70
    32
  0
VERTEX
  8
0
  5
8D0
 10
3081.88
 20
1828.44
 30
0.000000
  70
    32
  0
VERTEX
  8
0
  5
8D1
 10
3081.94
 20
1828.41
 30
0.000000
  70
    32
  0
VERTEX
  8
0
  5
8D2
 10
3081.99
 20
1828.38
 30
0.000000
  70
    32
  0
VERTEX
  8
0
  5
8D3
 10
3082.04
 20
1828.35
 30
0.000000
  70
    32
  0
VERTEX
  8
0
  5
8D4
 10
3082.09
 20
1828.32
 30
0.000000
  70
    32
  0
VERTEX
  8
0
  5
8D5
 10
3082.15
 20
1828.29
 30
0.000000
  70
    32
  0
VERTEX
  8
0
  5
8D6
 10
3082.20
 20
1828.26
 30
0.000000
  70
    32
  0
VERTEX
  8
0
  5
8D7
 10
3082.25
 20
1828.23
 30
0.000000
  70
    32
  0
VERTEX
  8
0
  5
8D8
 10
3082.31
 20
1828.19
 30
0.000000
  70
    32
  0
VERTEX
  8
0
  5
8D9
 10
3082.36
 20
1828.16
 30
0.000000
  70
    32
  0
VERTEX
  8
0
  5
8DA
 10
3082.41
 20
1828.13
 30
0.000000
  70
    32
  0
VERTEX
  8
0
  5
8DB
 10
3082.47
 20
1828.11
 30
0.000000
  70
    32
  0
VERTEX
  8
0
  5
8DC
 10
3082.52
 20
1828.08
 30
0.000000
  70
    32
  0
VERTEX
  8
0
  5
8DD
 10
3082.58
 20
1828.05
 30
0.000000
  70
    32
  0
VERTEX
  8
0
  5
8DE
 10
3082.63
 20
1828.02
 30
0.000000
  70
    32
  0
VERTEX
  8
0
  5
8DF
 10
3082.68
 20
1827.99
 30
0.000000
  70
    32
  0
VERTEX
  8
0
  5
8E0
 10
3082.74
 20
1827.96
 30
0.000000
  70
    32
  0
VERTEX
  8
0
  5
8E1
 10
3082.79
 20
1827.93
 30
0.000000
  70
    32
  0
VERTEX
  8
0
  5
8E2
 10
3082.85
 20
1827.90
 30
0.000000
  70
    32
  0
VERTEX
  8
0
  5
8E3
 10
3082.90
 20
1827.87
 30
0.000000
  70
    32
  0
VERTEX
  8
0
  5
8E4
 10
3082.96
 20
1827.85
 30
0.000000
  70
    32
  0
VERTEX
  8
0
  5
8E5
 10
3083.01
 20
1827.82
 30
0.000000
  70
    32
  0
VERTEX
  8
0
  5
8E6
 10
3083.07
 20
1827.79
 30
0.000000
  70
    32
  0
VERTEX
  8
0
  5
8E7
 10
3083.12
 20
1827.76
 30
0.000000
  70
    32
  0
VERTEX
  8
0
  5
8E8
 10
3083.18
 20
1827.74
 30
0.000000
  70
    32
  0
VERTEX
  8
0
  5
8E9
 10
3083.23
 20
1827.71
 30
0.000000
  70
    32
  0
VERTEX
  8
0
  5
8EA
 10
3083.29
 20
1827.68
 30
0.000000
  70
    32
  0
VERTEX
  8
0
  5
8EB
 10
3083.34
 20
1827.66
 30
0.000000
  70
    32
  0
VERTEX
  8
0
  5
8EC
 10
3083.40
 20
1827.63
 30
0.000000
  70
    32
  0
VERTEX
  8
0
  5
8ED
 10
3083.45
 20
1827.60
 30
0.000000
  70
    32
  0
VERTEX
  8
0
  5
8EE
 10
3083.51
 20
1827.58
 30
0.000000
  70
    32
  0
VERTEX
  8
0
  5
8EF
 10
3083.56
 20
1827.55
 30
0.000000
  70
    32
  0
VERTEX
  8
0
  5
8F0
 10
3083.62
 20
1827.52
 30
0.000000
  70
    32
  0
VERTEX
  8
0
  5
8F1
 10
3083.68
 20
1827.50
 30
0.000000
  70
    32
  0
VERTEX
  8
0
  5
8F2
 10
3083.73
 20
1827.47
 30
0.000000
  70
    32
  0
VERTEX
  8
0
  5
8F3
 10
3083.79
 20
1827.45
 30
0.000000
  70
    32
  0
VERTEX
  8
0
  5
8F4
 10
3083.84
 20
1827.42
 30
0.000000
  70
    32
  0
VERTEX
  8
0
  5
8F5
 10
3083.90
 20
1827.40
 30
0.000000
  70
    32
  0
VERTEX
  8
0
  5
8F6
 10
3083.96
 20
1827.37
 30
0.000000
  70
    32
  0
VERTEX
  8
0
  5
8F7
 10
3084.01
 20
1827.35
 30
0.000000
  70
    32
  0
VERTEX
  8
0
  5
8F8
 10
3084.07
 20
1827.33
 30
0.000000
  70
    32
  0
VERTEX
  8
0
  5
8F9
 10
3084.13
 20
1827.30
 30
0.000000
  70
    32
  0
VERTEX
  8
0
  5
8FA
 10
3084.18
 20
1827.28
 30
0.000000
  70
    32
  0
VERTEX
  8
0
  5
8FB
 10
3084.24
 20
1827.25
 30
0.000000
  70
    32
  0
VERTEX
  8
0
  5
8FC
 10
3084.30
 20
1827.23
 30
0.000000
  70
    32
  0
VERTEX
  8
0
  5
8FD
 10
3084.35
 20
1827.21
 30
0.000000
  70
    32
  0
VERTEX
  8
0
  5
8FE
 10
3084.41
 20
1827.18
 30
0.000000
  70
    32
  0
VERTEX
  8
0
  5
8FF
 10
3084.47
 20
1827.16
 30
0.000000
  70
    32
  0
VERTEX
  8
0
  5
900
 10
3084.52
 20
1827.14
 30
0.000000
  70
    32
  0
VERTEX
  8
0
  5
901
 10
3084.58
 20
1827.12
 30
0.000000
  70
    32
  0
VERTEX
  8
0
  5
902
 10
3084.64
 20
1827.09
 30
0.000000
  70
    32
  0
VERTEX
  8
0
  5
903
 10
3084.70
 20
1827.07
 30
0.000000
  70
    32
  0
VERTEX
  8
0
  5
904
 10
3084.75
 20
1827.05
 30
0.000000
  70
    32
  0
VERTEX
  8
0
  5
905
 10
3084.81
 20
1827.03
 30
0.000000
  70
    32
  0
VERTEX
  8
0
  5
906
 10
3084.87
 20
1827.00
 30
0.000000
  70
    32
  0
VERTEX
  8
0
  5
907
 10
3084.93
 20
1826.98
 30
0.000000
  70
    32
  0
VERTEX
  8
0
  5
908
 10
3084.98
 20
1826.96
 30
0.000000
  70
    32
  0
VERTEX
  8
0
  5
909
 10
3085.04
 20
1826.94
 30
0.000000
  70
    32
  0
VERTEX
  8
0
  5
90A
 10
3085.10
 20
1826.92
 30
0.000000
  70
    32
  0
VERTEX
  8
0
  5
90B
 10
3085.16
 20
1826.90
 30
0.000000
  70
    32
  0
VERTEX
  8
0
  5
90C
 10
3085.22
 20
1826.88
 30
0.000000
  70
    32
  0
VERTEX
  8
0
  5
90D
 10
3085.27
 20
1826.86
 30
0.000000
  70
    32
  0
VERTEX
  8
0
  5
90E
 10
3085.33
 20
1826.84
 30
0.000000
  70
    32
  0
VERTEX
  8
0
  5
90F
 10
3085.39
 20
1826.82
 30
0.000000
  70
    32
  0
VERTEX
  8
0
  5
910
 10
3085.45
 20
1826.80
 30
0.000000
  70
    32
  0
VERTEX
  8
0
  5
911
 10
3085.51
 20
1826.78
 30
0.000000
  70
    32
  0
VERTEX
  8
0
  5
912
 10
3085.57
 20
1826.76
 30
0.000000
  70
    32
  0
VERTEX
  8
0
  5
913
 10
3085.62
 20
1826.74
 30
0.000000
  70
    32
  0
VERTEX
  8
0
  5
914
 10
3085.68
 20
1826.72
 30
0.000000
  70
    32
  0
VERTEX
  8
0
  5
915
 10
3085.74
 20
1826.70
 30
0.000000
  70
    32
  0
VERTEX
  8
0
  5
916
 10
3085.80
 20
1826.68
 30
0.000000
  70
    32
  0
VERTEX
  8
0
  5
917
 10
3085.86
 20
1826.66
 30
0.000000
  70
    32
  0
VERTEX
  8
0
  5
918
 10
3085.92
 20
1826.65
 30
0.000000
  70
    32
  0
VERTEX
  8
0
  5
919
 10
3085.98
 20
1826.63
 30
0.000000
  70
    32
  0
VERTEX
  8
0
  5
91A
 10
3086.03
 20
1826.61
 30
0.000000
  70
    32
  0
VERTEX
  8
0
  5
91B
 10
3086.09
 20
1826.59
 30
0.000000
  70
    32
  0
VERTEX
  8
0
  5
91C
 10
3086.15
 20
1826.57
 30
0.000000
  70
    32
  0
VERTEX
  8
0
  5
91D
 10
3086.21
 20
1826.56
 30
0.000000
  70
    32
  0
VERTEX
  8
0
  5
91E
 10
3086.27
 20
1826.54
 30
0.000000
  70
    32
  0
VERTEX
  8
0
  5
91F
 10
3086.33
 20
1826.52
 30
0.000000
  70
    32
  0
VERTEX
  8
0
  5
920
 10
3086.39
 20
1826.50
 30
0.000000
  70
    32
  0
VERTEX
  8
0
  5
921
 10
3086.45
 20
1826.49
 30
0.000000
  70
    32
  0
VERTEX
  8
0
  5
922
 10
3086.51
 20
1826.47
 30
0.000000
  70
    32
  0
VERTEX
  8
0
  5
923
 10
3086.57
 20
1826.45
 30
0.000000
  70
    32
  0
VERTEX
  8
0
  5
924
 10
3086.63
 20
1826.44
 30
0.000000
  70
    32
  0
VERTEX
  8
0
  5
925
 10
3086.69
 20
1826.42
 30
0.000000
  70
    32
  0
VERTEX
  8
0
  5
926
 10
3086.74
 20
1826.41
 30
0.000000
  70
    32
  0
VERTEX
  8
0
  5
927
 10
3086.80
 20
1826.39
 30
0.000000
  70
    32
  0
VERTEX
  8
0
  5
928
 10
3086.86
 20
1826.37
 30
0.000000
  70
    32
  0
VERTEX
  8
0
  5
929
 10
3086.92
 20
1826.36
 30
0.000000
  70
    32
  0
VERTEX
  8
0
  5
92A
 10
3086.98
 20
1826.34
 30
0.000000
  70
    32
  0
VERTEX
  8
0
  5
92B
 10
3087.04
 20
1826.33
 30
0.000000
  70
    32
  0
VERTEX
  8
0
  5
92C
 10
3087.10
 20
1826.31
 30
0.000000
  70
    32
  0
VERTEX
  8
0
  5
92D
 10
3087.16
 20
1826.30
 30
0.000000
  70
    32
  0
VERTEX
  8
0
  5
92E
 10
3087.22
 20
1826.28
 30
0.000000
  70
    32
  0
VERTEX
  8
0
  5
92F
 10
3087.28
 20
1826.27
 30
0.000000
  70
    32
  0
VERTEX
  8
0
  5
930
 10
3087.34
 20
1826.26
 30
0.000000
  70
    32
  0
VERTEX
  8
0
  5
931
 10
3087.40
 20
1826.24
 30
0.000000
  70
    32
  0
VERTEX
  8
0
  5
932
 10
3087.46
 20
1826.23
 30
0.000000
  70
    32
  0
VERTEX
  8
0
  5
933
 10
3087.52
 20
1826.21
 30
0.000000
  70
    32
  0
VERTEX
  8
0
  5
934
 10
3087.58
 20
1826.20
 30
0.000000
  70
    32
  0
VERTEX
  8
0
  5
935
 10
3087.64
 20
1826.19
 30
0.000000
  70
    32
  0
VERTEX
  8
0
  5
936
 10
3087.70
 20
1826.17
 30
0.000000
  70
    32
  0
VERTEX
  8
0
  5
937
 10
3087.76
 20
1826.16
 30
0.000000
  70
    32
  0
VERTEX
  8
0
  5
938
 10
3087.82
 20
1826.15
 30
0.000000
  70
    32
  0
VERTEX
  8
0
  5
939
 10
3087.88
 20
1826.13
 30
0.000000
  70
    32
  0
VERTEX
  8
0
  5
93A
 10
3087.94
 20
1826.12
 30
0.000000
  70
    32
  0
VERTEX
  8
0
  5
93B
 10
3088.00
 20
1826.11
 30
0.000000
  70
    32
  0
VERTEX
  8
0
  5
93C
 10
3088.06
 20
1826.10
 30
0.000000
  70
    32
  0
VERTEX
  8
0
  5
93D
 10
3088.12
 20
1826.09
 30
0.000000
  70
    32
  0
VERTEX
  8
0
  5
93E
 10
3088.18
 20
1826.07
 30
0.000000
  70
    32
  0
VERTEX
  8
0
  5
93F
 10
3088.25
 20
1826.06
 30
0.000000
  70
    32
  0
VERTEX
  8
0
  5
940
 10
3088.31
 20
1826.05
 30
0.000000
  70
    32
  0
VERTEX
  8
0
  5
941
 10
3088.37
 20
1826.04
 30
0.000000
  70
    32
  0
VERTEX
  8
0
  5
942
 10
3088.43
 20
1826.03
 30
0.000000
  70
    32
  0
VERTEX
  8
0
  5
943
 10
3088.49
 20
1826.02
 30
0.000000
  70
    32
  0
VERTEX
  8
0
  5
944
 10
3088.55
 20
1826.01
 30
0.000000
  70
    32
  0
VERTEX
  8
0
  5
945
 10
3088.61
 20
1826.00
 30
0.000000
  70
    32
  0
VERTEX
  8
0
  5
946
 10
3088.67
 20
1825.99
 30
0.000000
  70
    32
  0
VERTEX
  8
0
  5
947
 10
3088.73
 20
1825.98
 30
0.000000
  70
    32
  0
VERTEX
  8
0
  5
948
 10
3088.79
 20
1825.97
 30
0.000000
  70
    32
  0
VERTEX
  8
0
  5
949
 10
3088.85
 20
1825.96
 30
0.000000
  70
    32
  0
VERTEX
  8
0
  5
94A
 10
3088.91
 20
1825.95
 30
0.000000
  70
    32
  0
VERTEX
  8
0
  5
94B
 10
3088.97
 20
1825.94
 30
0.000000
  70
    32
  0
VERTEX
  8
0
  5
94C
 10
3089.03
 20
1825.93
 30
0.000000
  70
    32
  0
VERTEX
  8
0
  5
94D
 10
3089.09
 20
1825.92
 30
0.000000
  70
    32
  0
VERTEX
  8
0
  5
94E
 10
3089.16
 20
1825.91
 30
0.000000
  70
    32
  0
VERTEX
  8
0
  5
94F
 10
3089.22
 20
1825.90
 30
0.000000
  70
    32
  0
VERTEX
  8
0
  5
950
 10
3089.28
 20
1825.89
 30
0.000000
  70
    32
  0
VERTEX
  8
0
  5
951
 10
3089.34
 20
1825.88
 30
0.000000
  70
    32
  0
VERTEX
  8
0
  5
952
 10
3089.40
 20
1825.87
 30
0.000000
  70
    32
  0
VERTEX
  8
0
  5
953
 10
3089.46
 20
1825.87
 30
0.000000
  70
    32
  0
VERTEX
  8
0
  5
954
 10
3089.52
 20
1825.86
 30
0.000000
  70
    32
  0
VERTEX
  8
0
  5
955
 10
3089.58
 20
1825.85
 30
0.000000
  70
    32
  0
VERTEX
  8
0
  5
956
 10
3089.64
 20
1825.84
 30
0.000000
  70
    32
  0
VERTEX
  8
0
  5
957
 10
3089.70
 20
1825.83
 30
0.000000
  70
    32
  0
VERTEX
  8
0
  5
958
 10
3089.77
 20
1825.83
 30
0.000000
  70
    32
  0
VERTEX
  8
0
  5
959
 10
3089.83
 20
1825.82
 30
0.000000
  70
    32
  0
VERTEX
  8
0
  5
95A
 10
3089.89
 20
1825.81
 30
0.000000
  70
    32
  0
VERTEX
  8
0
  5
95B
 10
3089.95
 20
1825.81
 30
0.000000
  70
    32
  0
VERTEX
  8
0
  5
95C
 10
3090.01
 20
1825.80
 30
0.000000
  70
    32
  0
VERTEX
  8
0
  5
95D
 10
3090.07
 20
1825.79
 30
0.000000
  70
    32
  0
VERTEX
  8
0
  5
95E
 10
3090.13
 20
1825.79
 30
0.000000
  70
    32
  0
VERTEX
  8
0
  5
95F
 10
3090.19
 20
1825.78
 30
0.000000
  70
    32
  0
VERTEX
  8
0
  5
960
 10
3090.26
 20
1825.77
 30
0.000000
  70
    32
  0
VERTEX
  8
0
  5
961
 10
3090.32
 20
1825.77
 30
0.000000
  70
    32
  0
VERTEX
  8
0
  5
962
 10
3090.38
 20
1825.76
 30
0.000000
  70
    32
  0
VERTEX
  8
0
  5
963
 10
3090.44
 20
1825.76
 30
0.000000
  70
    32
  0
VERTEX
  8
0
  5
964
 10
3090.50
 20
1825.75
 30
0.000000
  70
    32
  0
VERTEX
  8
0
  5
965
 10
3090.56
 20
1825.75
 30
0.000000
  70
    32
  0
VERTEX
  8
0
  5
966
 10
3090.62
 20
1825.74
 30
0.000000
  70
    32
  0
VERTEX
  8
0
  5
967
 10
3090.68
 20
1825.74
 30
0.000000
  70
    32
  0
VERTEX
  8
0
  5
968
 10
3090.75
 20
1825.73
 30
0.000000
  70
    32
  0
VERTEX
  8
0
  5
969
 10
3090.81
 20
1825.73
 30
0.000000
  70
    32
  0
VERTEX
  8
0
  5
96A
 10
3090.87
 20
1825.72
 30
0.000000
  70
    32
  0
VERTEX
  8
0
  5
96B
 10
3090.93
 20
1825.72
 30
0.000000
  70
    32
  0
VERTEX
  8
0
  5
96C
 10
3090.99
 20
1825.71
 30
0.000000
  70
    32
  0
VERTEX
  8
0
  5
96D
 10
3091.05
 20
1825.71
 30
0.000000
  70
    32
  0
VERTEX
  8
0
  5
96E
 10
3091.11
 20
1825.71
 30
0.000000
  70
    32
  0
VERTEX
  8
0
  5
96F
 10
3091.17
 20
1825.70
 30
0.000000
  70
    32
  0
VERTEX
  8
0
  5
970
 10
3091.24
 20
1825.70
 30
0.000000
  70
    32
  0
VERTEX
  8
0
  5
971
 10
3091.30
 20
1825.70
 30
0.000000
  70
    32
  0
VERTEX
  8
0
  5
972
 10
3091.36
 20
1825.69
 30
0.000000
  70
    32
  0
VERTEX
  8
0
  5
973
 10
3091.42
 20
1825.69
 30
0.000000
  70
    32
  0
VERTEX
  8
0
  5
974
 10
3091.48
 20
1825.69
 30
0.000000
  70
    32
  0
VERTEX
  8
0
  5
975
 10
3091.54
 20
1825.69
 30
0.000000
  70
    32
  0
VERTEX
  8
0
  5
976
 10
3091.60
 20
1825.68
 30
0.000000
  70
    32
  0
VERTEX
  8
0
  5
977
 10
3091.67
 20
1825.68
 30
0.000000
  70
    32
  0
VERTEX
  8
0
  5
978
 10
3091.73
 20
1825.68
 30
0.000000
  70
    32
  0
VERTEX
  8
0
  5
979
 10
3091.79
 20
1825.68
 30
0.000000
  70
    32
  0
VERTEX
  8
0
  5
97A
 10
3091.85
 20
1825.67
 30
0.000000
  70
    32
  0
VERTEX
  8
0
  5
97B
 10
3091.91
 20
1825.67
 30
0.000000
  70
    32
  0
VERTEX
  8
0
  5
97C
 10
3091.97
 20
1825.67
 30
0.000000
  70
    32
  0
VERTEX
  8
0
  5
97D
 10
3092.03
 20
1825.67
 30
0.000000
  70
    32
  0
VERTEX
  8
0
  5
97E
 10
3092.10
 20
1825.67
 30
0.000000
  70
    32
  0
VERTEX
  8
0
  5
97F
 10
3092.16
 20
1825.67
 30
0.000000
  70
    32
  0
VERTEX
  8
0
  5
980
 10
3092.22
 20
1825.67
 30
0.000000
  70
    32
  0
VERTEX
  8
0
  5
981
 10
3092.28
 20
1825.67
 30
0.000000
  70
    32
  0
VERTEX
  8
0
  5
982
 10
3092.34
 20
1825.67
 30
0.000000
  70
    32
  0
SEQEND
  8
0
  5
983
  0
POLYLINE
  8
0
  5
984
  66
     1
 10
0.000000
 20
0.000000
 30
0.000000
  70
     8
  0
VERTEX
  8
0
  5
985
 10
3079.95
 20
1837.62
 30
0.000000
  70
    32
  0
VERTEX
  8
0
  5
986
 10
3079.95
 20
1837.57
 30
0.000000
  70
    32
  0
VERTEX
  8
0
  5
987
 10
3079.95
 20
1837.52
 30
0.000000
  70
    32
  0
VERTEX
  8
0
  5
988
 10
3079.96
 20
1837.48
 30
0.000000
  70
    32
  0
VERTEX
  8
0
  5
989
 10
3079.96
 20
1837.43
 30
0.000000
  70
    32
  0
VERTEX
  8
0
  5
98A
 10
3079.96
 20
1837.38
 30
0.000000
  70
    32
  0
VERTEX
  8
0
  5
98B
 10
3079.96
 20
1837.33
 30
0.000000
  70
    32
  0
VERTEX
  8
0
  5
98C
 10
3079.96
 20
1837.28
 30
0.000000
  70
    32
  0
VERTEX
  8
0
  5
98D
 10
3079.97
 20
1837.23
 30
0.000000
  70
    32
  0
VERTEX
  8
0
  5
98E
 10
3079.97
 20
1837.18
 30
0.000000
  70
    32
  0
VERTEX
  8
0
  5
98F
 10
3079.97
 20
1837.14
 30
0.000000
  70
    32
  0
VERTEX
  8
0
  5
990
 10
3079.98
 20
1837.09
 30
0.000000
  70
    32
  0
VERTEX
  8
0
  5
991
 10
3079.98
 20
1837.04
 30
0.000000
  70
    32
  0
VERTEX
  8
0
  5
992
 10
3079.98
 20
1836.99
 30
0.000000
  70
    32
  0
VERTEX
  8
0
  5
993
 10
3079.99
 20
1836.94
 30
0.000000
  70
    32
  0
VERTEX
  8
0
  5
994
 10
3080.00
 20
1836.89
 30
0.000000
  70
    32
  0
VERTEX
  8
0
  5
995
 10
3080.00
 20
1836.85
 30
0.000000
  70
    32
  0
VERTEX
  8
0
  5
996
 10
3080.01
 20
1836.80
 30
0.000000
  70
    32
  0
VERTEX
  8
0
  5
997
 10
3080.01
 20
1836.75
 30
0.000000
  70
    32
  0
VERTEX
  8
0
  5
998
 10
3080.02
 20
1836.70
 30
0.000000
  70
    32
  0
VERTEX
  8
0
  5
999
 10
3080.03
 20
1836.65
 30
0.000000
  70
    32
  0
VERTEX
  8
0
  5
99A
 10
3080.03
 20
1836.61
 30
0.000000
  70
    32
  0
VERTEX
  8
0
  5
99B
 10
3080.04
 20
1836.56
 30
0.000000
  70
    32
  0
VERTEX
  8
0
  5
99C
 10
3080.05
 20
1836.51
 30
0.000000
  70
    32
  0
VERTEX
  8
0
  5
99D
 10
3080.06
 20
1836.46
 30
0.000000
  70
    32
  0
VERTEX
  8
0
  5
99E
 10
3080.07
 20
1836.41
 30
0.000000
  70
    32
  0
VERTEX
  8
0
  5
99F
 10
3080.08
 20
1836.37
 30
0.000000
  70
    32
  0
VERTEX
  8
0
  5
9A0
 10
3080.09
 20
1836.32
 30
0.000000
  70
    32
  0
VERTEX
  8
0
  5
9A1
 10
3080.09
 20
1836.27
 30
0.000000
  70
    32
  0
VERTEX
  8
0
  5
9A2
 10
3080.11
 20
1836.22
 30
0.000000
  70
    32
  0
VERTEX
  8
0
  5
9A3
 10
3080.12
 20
1836.18
 30
0.000000
  70
    32
  0
VERTEX
  8
0
  5
9A4
 10
3080.13
 20
1836.13
 30
0.000000
  70
    32
  0
VERTEX
  8
0
  5
9A5
 10
3080.14
 20
1836.08
 30
0.000000
  70
    32
  0
VERTEX
  8
0
  5
9A6
 10
3080.15
 20
1836.03
 30
0.000000
  70
    32
  0
VERTEX
  8
0
  5
9A7
 10
3080.16
 20
1835.99
 30
0.000000
  70
    32
  0
VERTEX
  8
0
  5
9A8
 10
3080.17
 20
1835.94
 30
0.000000
  70
    32
  0
VERTEX
  8
0
  5
9A9
 10
3080.19
 20
1835.89
 30
0.000000
  70
    32
  0
VERTEX
  8
0
  5
9AA
 10
3080.20
 20
1835.84
 30
0.000000
  70
    32
  0
VERTEX
  8
0
  5
9AB
 10
3080.21
 20
1835.80
 30
0.000000
  70
    32
  0
VERTEX
  8
0
  5
9AC
 10
3080.22
 20
1835.75
 30
0.000000
  70
    32
  0
VERTEX
  8
0
  5
9AD
 10
3080.24
 20
1835.70
 30
0.000000
  70
    32
  0
VERTEX
  8
0
  5
9AE
 10
3080.25
 20
1835.66
 30
0.000000
  70
    32
  0
VERTEX
  8
0
  5
9AF
 10
3080.27
 20
1835.61
 30
0.000000
  70
    32
  0
VERTEX
  8
0
  5
9B0
 10
3080.28
 20
1835.57
 30
0.000000
  70
    32
  0
VERTEX
  8
0
  5
9B1
 10
3080.30
 20
1835.52
 30
0.000000
  70
    32
  0
VERTEX
  8
0
  5
9B2
 10
3080.31
 20
1835.47
 30
0.000000
  70
    32
  0
VERTEX
  8
0
  5
9B3
 10
3080.33
 20
1835.43
 30
0.000000
  70
    32
  0
VERTEX
  8
0
  5
9B4
 10
3080.34
 20
1835.38
 30
0.000000
  70
    32
  0
VERTEX
  8
0
  5
9B5
 10
3080.36
 20
1835.34
 30
0.000000
  70
    32
  0
VERTEX
  8
0
  5
9B6
 10
3080.38
 20
1835.29
 30
0.000000
  70
    32
  0
VERTEX
  8
0
  5
9B7
 10
3080.39
 20
1835.24
 30
0.000000
  70
    32
  0
VERTEX
  8
0
  5
9B8
 10
3080.41
 20
1835.20
 30
0.000000
  70
    32
  0
VERTEX
  8
0
  5
9B9
 10
3080.43
 20
1835.15
 30
0.000000
  70
    32
  0
VERTEX
  8
0
  5
9BA
 10
3080.45
 20
1835.11
 30
0.000000
  70
    32
  0
VERTEX
  8
0
  5
9BB
 10
3080.46
 20
1835.06
 30
0.000000
  70
    32
  0
VERTEX
  8
0
  5
9BC
 10
3080.48
 20
1835.02
 30
0.000000
  70
    32
  0
VERTEX
  8
0
  5
9BD
 10
3080.50
 20
1834.97
 30
0.000000
  70
    32
  0
VERTEX
  8
0
  5
9BE
 10
3080.52
 20
1834.93
 30
0.000000
  70
    32
  0
VERTEX
  8
0
  5
9BF
 10
3080.54
 20
1834.88
 30
0.000000
  70
    32
  0
VERTEX
  8
0
  5
9C0
 10
3080.56
 20
1834.84
 30
0.000000
  70
    32
  0
VERTEX
  8
0
  5
9C1
 10
3080.58
 20
1834.80
 30
0.000000
  70
    32
  0
VERTEX
  8
0
  5
9C2
 10
3080.60
 20
1834.75
 30
0.000000
  70
    32
  0
VERTEX
  8
0
  5
9C3
 10
3080.62
 20
1834.71
 30
0.000000
  70
    32
  0
VERTEX
  8
0
  5
9C4
 10
3080.64
 20
1834.66
 30
0.000000
  70
    32
  0
VERTEX
  8
0
  5
9C5
 10
3080.66
 20
1834.62
 30
0.000000
  70
    32
  0
VERTEX
  8
0
  5
9C6
 10
3080.68
 20
1834.58
 30
0.000000
  70
    32
  0
VERTEX
  8
0
  5
9C7
 10
3080.70
 20
1834.53
 30
0.000000
  70
    32
  0
VERTEX
  8
0
  5
9C8
 10
3080.73
 20
1834.49
 30
0.000000
  70
    32
  0
VERTEX
  8
0
  5
9C9
 10
3080.75
 20
1834.45
 30
0.000000
  70
    32
  0
VERTEX
  8
0
  5
9CA
 10
3080.77
 20
1834.40
 30
0.000000
  70
    32
  0
VERTEX
  8
0
  5
9CB
 10
3080.79
 20
1834.36
 30
0.000000
  70
    32
  0
VERTEX
  8
0
  5
9CC
 10
3080.82
 20
1834.32
 30
0.000000
  70
    32
  0
VERTEX
  8
0
  5
9CD
 10
3080.84
 20
1834.27
 30
0.000000
  70
    32
  0
VERTEX
  8
0
  5
9CE
 10
3080.86
 20
1834.23
 30
0.000000
  70
    32
  0
VERTEX
  8
0
  5
9CF
 10
3080.89
 20
1834.19
 30
0.000000
  70
    32
  0
VERTEX
  8
0
  5
9D0
 10
3080.91
 20
1834.15
 30
0.000000
  70
    32
  0
VERTEX
  8
0
  5
9D1
 10
3080.93
 20
1834.10
 30
0.000000
  70
    32
  0
VERTEX
  8
0
  5
9D2
 10
3080.96
 20
1834.06
 30
0.000000
  70
    32
  0
VERTEX
  8
0
  5
9D3
 10
3080.98
 20
1834.02
 30
0.000000
  70
    32
  0
VERTEX
  8
0
  5
9D4
 10
3081.01
 20
1833.98
 30
0.000000
  70
    32
  0
VERTEX
  8
0
  5
9D5
 10
3081.03
 20
1833.94
 30
0.000000
  70
    32
  0
VERTEX
  8
0
  5
9D6
 10
3081.06
 20
1833.90
 30
0.000000
  70
    32
  0
VERTEX
  8
0
  5
9D7
 10
3081.09
 20
1833.86
 30
0.000000
  70
    32
  0
VERTEX
  8
0
  5
9D8
 10
3081.11
 20
1833.81
 30
0.000000
  70
    32
  0
VERTEX
  8
0
  5
9D9
 10
3081.14
 20
1833.77
 30
0.000000
  70
    32
  0
VERTEX
  8
0
  5
9DA
 10
3081.16
 20
1833.73
 30
0.000000
  70
    32
  0
VERTEX
  8
0
  5
9DB
 10
3081.19
 20
1833.69
 30
0.000000
  70
    32
  0
VERTEX
  8
0
  5
9DC
 10
3081.22
 20
1833.65
 30
0.000000
  70
    32
  0
VERTEX
  8
0
  5
9DD
 10
3081.25
 20
1833.61
 30
0.000000
  70
    32
  0
VERTEX
  8
0
  5
9DE
 10
3081.27
 20
1833.57
 30
0.000000
  70
    32
  0
VERTEX
  8
0
  5
9DF
 10
3081.30
 20
1833.53
 30
0.000000
  70
    32
  0
VERTEX
  8
0
  5
9E0
 10
3081.33
 20
1833.49
 30
0.000000
  70
    32
  0
VERTEX
  8
0
  5
9E1
 10
3081.36
 20
1833.45
 30
0.000000
  70
    32
  0
VERTEX
  8
0
  5
9E2
 10
3081.39
 20
1833.41
 30
0.000000
  70
    32
  0
VERTEX
  8
0
  5
9E3
 10
3081.41
 20
1833.37
 30
0.000000
  70
    32
  0
VERTEX
  8
0
  5
9E4
 10
3081.44
 20
1833.34
 30
0.000000
  70
    32
  0
VERTEX
  8
0
  5
9E5
 10
3081.47
 20
1833.30
 30
0.000000
  70
    32
  0
VERTEX
  8
0
  5
9E6
 10
3081.50
 20
1833.26
 30
0.000000
  70
    32
  0
VERTEX
  8
0
  5
9E7
 10
3081.53
 20
1833.22
 30
0.000000
  70
    32
  0
VERTEX
  8
0
  5
9E8
 10
3081.56
 20
1833.18
 30
0.000000
  70
    32
  0
VERTEX
  8
0
  5
9E9
 10
3081.59
 20
1833.14
 30
0.000000
  70
    32
  0
VERTEX
  8
0
  5
9EA
 10
3081.62
 20
1833.10
 30
0.000000
  70
    32
  0
VERTEX
  8
0
  5
9EB
 10
3081.65
 20
1833.07
 30
0.000000
  70
    32
  0
VERTEX
  8
0
  5
9EC
 10
3081.68
 20
1833.03
 30
0.000000
  70
    32
  0
VERTEX
  8
0
  5
9ED
 10
3081.71
 20
1832.99
 30
0.000000
  70
    32
  0
VERTEX
  8
0
  5
9EE
 10
3081.74
 20
1832.95
 30
0.000000
  70
    32
  0
VERTEX
  8
0
  5
9EF
 10
3081.77
 20
1832.92
 30
0.000000
  70
    32
  0
VERTEX
  8
0
  5
9F0
 10
3081.81
 20
1832.88
 30
0.000000
  70
    32
  0
VERTEX
  8
0
  5
9F1
 10
3081.84
 20
1832.84
 30
0.000000
  70
    32
  0
VERTEX
  8
0
  5
9F2
 10
3081.87
 20
1832.81
 30
0.000000
  70
    32
  0
VERTEX
  8
0
  5
9F3
 10
3081.90
 20
1832.77
 30
0.000000
  70
    32
  0
VERTEX
  8
0
  5
9F4
 10
3081.93
 20
1832.73
 30
0.000000
  70
    32
  0
VERTEX
  8
0
  5
9F5
 10
3081.97
 20
1832.70
 30
0.000000
  70
    32
  0
VERTEX
  8
0
  5
9F6
 10
3082.00
 20
1832.66
 30
0.000000
  70
    32
  0
VERTEX
  8
0
  5
9F7
 10
3082.03
 20
1832.62
 30
0.000000
  70
    32
  0
VERTEX
  8
0
  5
9F8
 10
3082.06
 20
1832.59
 30
0.000000
  70
    32
  0
VERTEX
  8
0
  5
9F9
 10
3082.10
 20
1832.55
 30
0.000000
  70
    32
  0
VERTEX
  8
0
  5
9FA
 10
3082.13
 20
1832.52
 30
0.000000
  70
    32
  0
VERTEX
  8
0
  5
9FB
 10
3082.16
 20
1832.48
 30
0.000000
  70
    32
  0
VERTEX
  8
0
  5
9FC
 10
3082.20
 20
1832.45
 30
0.000000
  70
    32
  0
VERTEX
  8
0
  5
9FD
 10
3082.23
 20
1832.41
 30
0.000000
  70
    32
  0
VERTEX
  8
0
  5
9FE
 10
3082.26
 20
1832.38
 30
0.000000
  70
    32
  0
VERTEX
  8
0
  5
9FF
 10
3082.30
 20
1832.34
 30
0.000000
  70
    32
  0
VERTEX
  8
0
  5
A00
 10
3082.33
 20
1832.31
 30
0.000000
  70
    32
  0
VERTEX
  8
0
  5
A01
 10
3082.37
 20
1832.27
 30
0.000000
  70
    32
  0
VERTEX
  8
0
  5
A02
 10
3082.40
 20
1832.24
 30
0.000000
  70
    32
  0
VERTEX
  8
0
  5
A03
 10
3082.44
 20
1832.21
 30
0.000000
  70
    32
  0
VERTEX
  8
0
  5
A04
 10
3082.47
 20
1832.17
 30
0.000000
  70
    32
  0
VERTEX
  8
0
  5
A05
 10
3082.51
 20
1832.14
 30
0.000000
  70
    32
  0
VERTEX
  8
0
  5
A06
 10
3082.54
 20
1832.11
 30
0.000000
  70
    32
  0
VERTEX
  8
0
  5
A07
 10
3082.58
 20
1832.07
 30
0.000000
  70
    32
  0
VERTEX
  8
0
  5
A08
 10
3082.61
 20
1832.04
 30
0.000000
  70
    32
  0
VERTEX
  8
0
  5
A09
 10
3082.65
 20
1832.01
 30
0.000000
  70
    32
  0
VERTEX
  8
0
  5
A0A
 10
3082.68
 20
1831.97
 30
0.000000
  70
    32
  0
VERTEX
  8
0
  5
A0B
 10
3082.72
 20
1831.94
 30
0.000000
  70
    32
  0
VERTEX
  8
0
  5
A0C
 10
3082.76
 20
1831.91
 30
0.000000
  70
    32
  0
VERTEX
  8
0
  5
A0D
 10
3082.79
 20
1831.88
 30
0.000000
  70
    32
  0
VERTEX
  8
0
  5
A0E
 10
3082.83
 20
1831.84
 30
0.000000
  70
    32
  0
VERTEX
  8
0
  5
A0F
 10
3082.87
 20
1831.81
 30
0.000000
  70
    32
  0
VERTEX
  8
0
  5
A10
 10
3082.90
 20
1831.78
 30
0.000000
  70
    32
  0
VERTEX
  8
0
  5
A11
 10
3082.94
 20
1831.75
 30
0.000000
  70
    32
  0
VERTEX
  8
0
  5
A12
 10
3082.98
 20
1831.72
 30
0.000000
  70
    32
  0
VERTEX
  8
0
  5
A13
 10
3083.01
 20
1831.69
 30
0.000000
  70
    32
  0
VERTEX
  8
0
  5
A14
 10
3083.05
 20
1831.66
 30
0.000000
  70
    32
  0
VERTEX
  8
0
  5
A15
 10
3083.09
 20
1831.62
 30
0.000000
  70
    32
  0
VERTEX
  8
0
  5
A16
 10
3083.13
 20
1831.59
 30
0.000000
  70
    32
  0
VERTEX
  8
0
  5
A17
 10
3083.16
 20
1831.56
 30
0.000000
  70
    32
  0
VERTEX
  8
0
  5
A18
 10
3083.20
 20
1831.53
 30
0.000000
  70
    32
  0
VERTEX
  8
0
  5
A19
 10
3083.24
 20
1831.50
 30
0.000000
  70
    32
  0
VERTEX
  8
0
  5
A1A
 10
3083.28
 20
1831.47
 30
0.000000
  70
    32
  0
VERTEX
  8
0
  5
A1B
 10
3083.32
 20
1831.44
 30
0.000000
  70
    32
  0
VERTEX
  8
0
  5
A1C
 10
3083.35
 20
1831.41
 30
0.000000
  70
    32
  0
VERTEX
  8
0
  5
A1D
 10
3083.39
 20
1831.38
 30
0.000000
  70
    32
  0
VERTEX
  8
0
  5
A1E
 10
3083.43
 20
1831.35
 30
0.000000
  70
    32
  0
VERTEX
  8
0
  5
A1F
 10
3083.47
 20
1831.32
 30
0.000000
  70
    32
  0
VERTEX
  8
0
  5
A20
 10
3083.51
 20
1831.30
 30
0.000000
  70
    32
  0
VERTEX
  8
0
  5
A21
 10
3083.55
 20
1831.27
 30
0.000000
  70
    32
  0
VERTEX
  8
0
  5
A22
 10
3083.59
 20
1831.24
 30
0.000000
  70
    32
  0
VERTEX
  8
0
  5
A23
 10
3083.63
 20
1831.21
 30
0.000000
  70
    32
  0
VERTEX
  8
0
  5
A24
 10
3083.67
 20
1831.18
 30
0.000000
  70
    32
  0
VERTEX
  8
0
  5
A25
 10
3083.70
 20
1831.15
 30
0.000000
  70
    32
  0
VERTEX
  8
0
  5
A26
 10
3083.74
 20
1831.13
 30
0.000000
  70
    32
  0
VERTEX
  8
0
  5
A27
 10
3083.78
 20
1831.10
 30
0.000000
  70
    32
  0
VERTEX
  8
0
  5
A28
 10
3083.82
 20
1831.07
 30
0.000000
  70
    32
  0
VERTEX
  8
0
  5
A29
 10
3083.86
 20
1831.04
 30
0.000000
  70
    32
  0
VERTEX
  8
0
  5
A2A
 10
3083.90
 20
1831.01
 30
0.000000
  70
    32
  0
VERTEX
  8
0
  5
A2B
 10
3083.94
 20
1830.99
 30
0.000000
  70
    32
  0
VERTEX
  8
0
  5
A2C
 10
3083.98
 20
1830.96
 30
0.000000
  70
    32
  0
VERTEX
  8
0
  5
A2D
 10
3084.03
 20
1830.93
 30
0.000000
  70
    32
  0
VERTEX
  8
0
  5
A2E
 10
3084.07
 20
1830.91
 30
0.000000
  70
    32
  0
VERTEX
  8
0
  5
A2F
 10
3084.11
 20
1830.88
 30
0.000000
  70
    32
  0
VERTEX
  8
0
  5
A30
 10
3084.15
 20
1830.85
 30
0.000000
  70
    32
  0
VERTEX
  8
0
  5
A31
 10
3084.19
 20
1830.83
 30
0.000000
  70
    32
  0
VERTEX
  8
0
  5
A32
 10
3084.23
 20
1830.80
 30
0.000000
  70
    32
  0
VERTEX
  8
0
  5
A33
 10
3084.27
 20
1830.78
 30
0.000000
  70
    32
  0
VERTEX
  8
0
  5
A34
 10
3084.31
 20
1830.75
 30
0.000000
  70
    32
  0
VERTEX
  8
0
  5
A35
 10
3084.35
 20
1830.73
 30
0.000000
  70
    32
  0
VERTEX
  8
0
  5
A36
 10
3084.39
 20
1830.70
 30
0.000000
  70
    32
  0
VERTEX
  8
0
  5
A37
 10
3084.44
 20
1830.67
 30
0.000000
  70
    32
  0
VERTEX
  8
0
  5
A38
 10
3084.48
 20
1830.65
 30
0.000000
  70
    32
  0
VERTEX
  8
0
  5
A39
 10
3084.52
 20
1830.62
 30
0.000000
  70
    32
  0
VERTEX
  8
0
  5
A3A
 10
3084.56
 20
1830.60
 30
0.000000
  70
    32
  0
VERTEX
  8
0
  5
A3B
 10
3084.60
 20
1830.58
 30
0.000000
  70
    32
  0
VERTEX
  8
0
  5
A3C
 10
3084.64
 20
1830.55
 30
0.000000
  70
    32
  0
VERTEX
  8
0
  5
A3D
 10
3084.69
 20
1830.53
 30
0.000000
  70
    32
  0
VERTEX
  8
0
  5
A3E
 10
3084.73
 20
1830.50
 30
0.000000
  70
    32
  0
VERTEX
  8
0
  5
A3F
 10
3084.77
 20
1830.48
 30
0.000000
  70
    32
  0
VERTEX
  8
0
  5
A40
 10
3084.81
 20
1830.45
 30
0.000000
  70
    32
  0
VERTEX
  8
0
  5
A41
 10
3084.86
 20
1830.43
 30
0.000000
  70
    32
  0
VERTEX
  8
0
  5
A42
 10
3084.90
 20
1830.41
 30
0.000000
  70
    32
  0
VERTEX
  8
0
  5
A43
 10
3084.94
 20
1830.38
 30
0.000000
  70
    32
  0
VERTEX
  8
0
  5
A44
 10
3084.98
 20
1830.36
 30
0.000000
  70
    32
  0
VERTEX
  8
0
  5
A45
 10
3085.03
 20
1830.34
 30
0.000000
  70
    32
  0
VERTEX
  8
0
  5
A46
 10
3085.07
 20
1830.32
 30
0.000000
  70
    32
  0
VERTEX
  8
0
  5
A47
 10
3085.11
 20
1830.29
 30
0.000000
  70
    32
  0
VERTEX
  8
0
  5
A48
 10
3085.15
 20
1830.27
 30
0.000000
  70
    32
  0
VERTEX
  8
0
  5
A49
 10
3085.20
 20
1830.25
 30
0.000000
  70
    32
  0
VERTEX
  8
0
  5
A4A
 10
3085.24
 20
1830.23
 30
0.000000
  70
    32
  0
VERTEX
  8
0
  5
A4B
 10
3085.28
 20
1830.20
 30
0.000000
  70
    32
  0
VERTEX
  8
0
  5
A4C
 10
3085.33
 20
1830.18
 30
0.000000
  70
    32
  0
VERTEX
  8
0
  5
A4D
 10
3085.37
 20
1830.16
 30
0.000000
  70
    32
  0
VERTEX
  8
0
  5
A4E
 10
3085.41
 20
1830.14
 30
0.000000
  70
    32
  0
VERTEX
  8
0
  5
A4F
 10
3085.46
 20
1830.12
 30
0.000000
  70
    32
  0
VERTEX
  8
0
  5
A50
 10
3085.50
 20
1830.10
 30
0.000000
  70
    32
  0
VERTEX
  8
0
  5
A51
 10
3085.54
 20
1830.08
 30
0.000000
  70
    32
  0
VERTEX
  8
0
  5
A52
 10
3085.59
 20
1830.05
 30
0.000000
  70
    32
  0
VERTEX
  8
0
  5
A53
 10
3085.63
 20
1830.03
 30
0.000000
  70
    32
  0
VERTEX
  8
0
  5
A54
 10
3085.68
 20
1830.01
 30
0.000000
  70
    32
  0
VERTEX
  8
0
  5
A55
 10
3085.72
 20
1829.99
 30
0.000000
  70
    32
  0
VERTEX
  8
0
  5
A56
 10
3085.76
 20
1829.97
 30
0.000000
  70
    32
  0
VERTEX
  8
0
  5
A57
 10
3085.81
 20
1829.95
 30
0.000000
  70
    32
  0
VERTEX
  8
0
  5
A58
 10
3085.85
 20
1829.93
 30
0.000000
  70
    32
  0
VERTEX
  8
0
  5
A59
 10
3085.90
 20
1829.91
 30
0.000000
  70
    32
  0
VERTEX
  8
0
  5
A5A
 10
3085.94
 20
1829.89
 30
0.000000
  70
    32
  0
VERTEX
  8
0
  5
A5B
 10
3085.99
 20
1829.87
 30
0.000000
  70
    32
  0
VERTEX
  8
0
  5
A5C
 10
3086.03
 20
1829.85
 30
0.000000
  70
    32
  0
VERTEX
  8
0
  5
A5D
 10
3086.07
 20
1829.83
 30
0.000000
  70
    32
  0
VERTEX
  8
0
  5
A5E
 10
3086.12
 20
1829.81
 30
0.000000
  70
    32
  0
VERTEX
  8
0
  5
A5F
 10
3086.16
 20
1829.80
 30
0.000000
  70
    32
  0
VERTEX
  8
0
  5
A60
 10
3086.21
 20
1829.78
 30
0.000000
  70
    32
  0
VERTEX
  8
0
  5
A61
 10
3086.25
 20
1829.76
 30
0.000000
  70
    32
  0
VERTEX
  8
0
  5
A62
 10
3086.30
 20
1829.74
 30
0.000000
  70
    32
  0
VERTEX
  8
0
  5
A63
 10
3086.34
 20
1829.72
 30
0.000000
  70
    32
  0
VERTEX
  8
0
  5
A64
 10
3086.39
 20
1829.70
 30
0.000000
  70
    32
  0
VERTEX
  8
0
  5
A65
 10
3086.43
 20
1829.69
 30
0.000000
  70
    32
  0
VERTEX
  8
0
  5
A66
 10
3086.48
 20
1829.67
 30
0.000000
  70
    32
  0
VERTEX
  8
0
  5
A67
 10
3086.52
 20
1829.65
 30
0.000000
  70
    32
  0
VERTEX
  8
0
  5
A68
 10
3086.57
 20
1829.63
 30
0.000000
  70
    32
  0
VERTEX
  8
0
  5
A69
 10
3086.61
 20
1829.61
 30
0.000000
  70
    32
  0
VERTEX
  8
0
  5
A6A
 10
3086.66
 20
1829.60
 30
0.000000
  70
    32
  0
VERTEX
  8
0
  5
A6B
 10
3086.70
 20
1829.58
 30
0.000000
  70
    32
  0
VERTEX
  8
0
  5
A6C
 10
3086.75
 20
1829.56
 30
0.000000
  70
    32
  0
VERTEX
  8
0
  5
A6D
 10
3086.80
 20
1829.55
 30
0.000000
  70
    32
  0
VERTEX
  8
0
  5
A6E
 10
3086.84
 20
1829.53
 30
0.000000
  70
    32
  0
VERTEX
  8
0
  5
A6F
 10
3086.89
 20
1829.51
 30
0.000000
  70
    32
  0
VERTEX
  8
0
  5
A70
 10
3086.93
 20
1829.50
 30
0.000000
  70
    32
  0
VERTEX
  8
0
  5
A71
 10
3086.98
 20
1829.48
 30
0.000000
  70
    32
  0
VERTEX
  8
0
  5
A72
 10
3087.02
 20
1829.46
 30
0.000000
  70
    32
  0
VERTEX
  8
0
  5
A73
 10
3087.07
 20
1829.45
 30
0.000000
  70
    32
  0
VERTEX
  8
0
  5
A74
 10
3087.12
 20
1829.43
 30
0.000000
  70
    32
  0
VERTEX
  8
0
  5
A75
 10
3087.16
 20
1829.42
 30
0.000000
  70
    32
  0
VERTEX
  8
0
  5
A76
 10
3087.21
 20
1829.40
 30
0.000000
  70
    32
  0
VERTEX
  8
0
  5
A77
 10
3087.25
 20
1829.39
 30
0.000000
  70
    32
  0
VERTEX
  8
0
  5
A78
 10
3087.30
 20
1829.37
 30
0.000000
  70
    32
  0
VERTEX
  8
0
  5
A79
 10
3087.35
 20
1829.36
 30
0.000000
  70
    32
  0
VERTEX
  8
0
  5
A7A
 10
3087.39
 20
1829.34
 30
0.000000
  70
    32
  0
VERTEX
  8
0
  5
A7B
 10
3087.44
 20
1829.33
 30
0.000000
  70
    32
  0
VERTEX
  8
0
  5
A7C
 10
3087.48
 20
1829.31
 30
0.000000
  70
    32
  0
VERTEX
  8
0
  5
A7D
 10
3087.53
 20
1829.30
 30
0.000000
  70
    32
  0
VERTEX
  8
0
  5
A7E
 10
3087.58
 20
1829.28
 30
0.000000
  70
    32
  0
VERTEX
  8
0
  5
A7F
 10
3087.62
 20
1829.27
 30
0.000000
  70
    32
  0
VERTEX
  8
0
  5
A80
 10
3087.67
 20
1829.25
 30
0.000000
  70
    32
  0
VERTEX
  8
0
  5
A81
 10
3087.72
 20
1829.24
 30
0.000000
  70
    32
  0
VERTEX
  8
0
  5
A82
 10
3087.76
 20
1829.23
 30
0.000000
  70
    32
  0
VERTEX
  8
0
  5
A83
 10
3087.81
 20
1829.21
 30
0.000000
  70
    32
  0
VERTEX
  8
0
  5
A84
 10
3087.86
 20
1829.20
 30
0.000000
  70
    32
  0
VERTEX
  8
0
  5
A85
 10
3087.90
 20
1829.19
 30
0.000000
  70
    32
  0
VERTEX
  8
0
  5
A86
 10
3087.95
 20
1829.17
 30
0.000000
  70
    32
  0
VERTEX
  8
0
  5
A87
 10
3088.00
 20
1829.16
 30
0.000000
  70
    32
  0
VERTEX
  8
0
  5
A88
 10
3088.04
 20
1829.15
 30
0.000000
  70
    32
  0
VERTEX
  8
0
  5
A89
 10
3088.09
 20
1829.13
 30
0.000000
  70
    32
  0
VERTEX
  8
0
  5
A8A
 10
3088.14
 20
1829.12
 30
0.000000
  70
    32
  0
VERTEX
  8
0
  5
A8B
 10
3088.18
 20
1829.11
 30
0.000000
  70
    32
  0
VERTEX
  8
0
  5
A8C
 10
3088.23
 20
1829.10
 30
0.000000
  70
    32
  0
VERTEX
  8
0
  5
A8D
 10
3088.28
 20
1829.09
 30
0.000000
  70
    32
  0
VERTEX
  8
0
  5
A8E
 10
3088.32
 20
1829.07
 30
0.000000
  70
    32
  0
VERTEX
  8
0
  5
A8F
 10
3088.37
 20
1829.06
 30
0.000000
  70
    32
  0
VERTEX
  8
0
  5
A90
 10
3088.42
 20
1829.05
 30
0.000000
  70
    32
  0
VERTEX
  8
0
  5
A91
 10
3088.47
 20
1829.04
 30
0.000000
  70
    32
  0
VERTEX
  8
0
  5
A92
 10
3088.51
 20
1829.03
 30
0.000000
  70
    32
  0
VERTEX
  8
0
  5
A93
 10
3088.56
 20
1829.02
 30
0.000000
  70
    32
  0
VERTEX
  8
0
  5
A94
 10
3088.61
 20
1829.00
 30
0.000000
  70
    32
  0
VERTEX
  8
0
  5
A95
 10
3088.65
 20
1828.99
 30
0.000000
  70
    32
  0
VERTEX
  8
0
  5
A96
 10
3088.70
 20
1828.98
 30
0.000000
  70
    32
  0
VERTEX
  8
0
  5
A97
 10
3088.75
 20
1828.97
 30
0.000000
  70
    32
  0
VERTEX
  8
0
  5
A98
 10
3088.80
 20
1828.96
 30
0.000000
  70
    32
  0
VERTEX
  8
0
  5
A99
 10
3088.84
 20
1828.95
 30
0.000000
  70
    32
  0
VERTEX
  8
0
  5
A9A
 10
3088.89
 20
1828.94
 30
0.000000
  70
    32
  0
VERTEX
  8
0
  5
A9B
 10
3088.94
 20
1828.93
 30
0.000000
  70
    32
  0
VERTEX
  8
0
  5
A9C
 10
3088.99
 20
1828.92
 30
0.000000
  70
    32
  0
VERTEX
  8
0
  5
A9D
 10
3089.03
 20
1828.91
 30
0.000000
  70
    32
  0
VERTEX
  8
0
  5
A9E
 10
3089.08
 20
1828.90
 30
0.000000
  70
    32
  0
VERTEX
  8
0
  5
A9F
 10
3089.13
 20
1828.89
 30
0.000000
  70
    32
  0
VERTEX
  8
0
  5
AA0
 10
3089.18
 20
1828.88
 30
0.000000
  70
    32
  0
VERTEX
  8
0
  5
AA1
 10
3089.22
 20
1828.87
 30
0.000000
  70
    32
  0
VERTEX
  8
0
  5
AA2
 10
3089.27
 20
1828.86
 30
0.000000
  70
    32
  0
VERTEX
  8
0
  5
AA3
 10
3089.32
 20
1828.85
 30
0.000000
  70
    32
  0
VERTEX
  8
0
  5
AA4
 10
3089.37
 20
1828.85
 30
0.000000
  70
    32
  0
VERTEX
  8
0
  5
AA5
 10
3089.41
 20
1828.84
 30
0.000000
  70
    32
  0
VERTEX
  8
0
  5
AA6
 10
3089.46
 20
1828.83
 30
0.000000
  70
    32
  0
VERTEX
  8
0
  5
AA7
 10
3089.51
 20
1828.82
 30
0.000000
  70
    32
  0
VERTEX
  8
0
  5
AA8
 10
3089.56
 20
1828.81
 30
0.000000
  70
    32
  0
VERTEX
  8
0
  5
AA9
 10
3089.61
 20
1828.80
 30
0.000000
  70
    32
  0
VERTEX
  8
0
  5
AAA
 10
3089.65
 20
1828.80
 30
0.000000
  70
    32
  0
VERTEX
  8
0
  5
AAB
 10
3089.70
 20
1828.79
 30
0.000000
  70
    32
  0
VERTEX
  8
0
  5
AAC
 10
3089.75
 20
1828.78
 30
0.000000
  70
    32
  0
VERTEX
  8
0
  5
AAD
 10
3089.80
 20
1828.77
 30
0.000000
  70
    32
  0
VERTEX
  8
0
  5
AAE
 10
3089.85
 20
1828.77
 30
0.000000
  70
    32
  0
VERTEX
  8
0
  5
AAF
 10
3089.89
 20
1828.76
 30
0.000000
  70
    32
  0
VERTEX
  8
0
  5
AB0
 10
3089.94
 20
1828.75
 30
0.000000
  70
    32
  0
VERTEX
  8
0
  5
AB1
 10
3089.99
 20
1828.74
 30
0.000000
  70
    32
  0
VERTEX
  8
0
  5
AB2
 10
3090.04
 20
1828.74
 30
0.000000
  70
    32
  0
VERTEX
  8
0
  5
AB3
 10
3090.09
 20
1828.73
 30
0.000000
  70
    32
  0
VERTEX
  8
0
  5
AB4
 10
3090.13
 20
1828.72
 30
0.000000
  70
    32
  0
VERTEX
  8
0
  5
AB5
 10
3090.18
 20
1828.72
 30
0.000000
  70
    32
  0
VERTEX
  8
0
  5
AB6
 10
3090.23
 20
1828.71
 30
0.000000
  70
    32
  0
VERTEX
  8
0
  5
AB7
 10
3090.28
 20
1828.70
 30
0.000000
  70
    32
  0
VERTEX
  8
0
  5
AB8
 10
3090.33
 20
1828.70
 30
0.000000
  70
    32
  0
VERTEX
  8
0
  5
AB9
 10
3090.37
 20
1828.69
 30
0.000000
  70
    32
  0
VERTEX
  8
0
  5
ABA
 10
3090.42
 20
1828.69
 30
0.000000
  70
    32
  0
VERTEX
  8
0
  5
ABB
 10
3090.47
 20
1828.68
 30
0.000000
  70
    32
  0
VERTEX
  8
0
  5
ABC
 10
3090.52
 20
1828.67
 30
0.000000
  70
    32
  0
VERTEX
  8
0
  5
ABD
 10
3090.57
 20
1828.67
 30
0.000000
  70
    32
  0
VERTEX
  8
0
  5
ABE
 10
3090.61
 20
1828.66
 30
0.000000
  70
    32
  0
VERTEX
  8
0
  5
ABF
 10
3090.66
 20
1828.66
 30
0.000000
  70
    32
  0
VERTEX
  8
0
  5
AC0
 10
3090.71
 20
1828.65
 30
0.000000
  70
    32
  0
VERTEX
  8
0
  5
AC1
 10
3090.76
 20
1828.65
 30
0.000000
  70
    32
  0
VERTEX
  8
0
  5
AC2
 10
3090.81
 20
1828.64
 30
0.000000
  70
    32
  0
VERTEX
  8
0
  5
AC3
 10
3090.86
 20
1828.64
 30
0.000000
  70
    32
  0
VERTEX
  8
0
  5
AC4
 10
3090.90
 20
1828.64
 30
0.000000
  70
    32
  0
VERTEX
  8
0
  5
AC5
 10
3090.95
 20
1828.63
 30
0.000000
  70
    32
  0
VERTEX
  8
0
  5
AC6
 10
3091.00
 20
1828.63
 30
0.000000
  70
    32
  0
VERTEX
  8
0
  5
AC7
 10
3091.05
 20
1828.62
 30
0.000000
  70
    32
  0
VERTEX
  8
0
  5
AC8
 10
3091.10
 20
1828.62
 30
0.000000
  70
    32
  0
VERTEX
  8
0
  5
AC9
 10
3091.15
 20
1828.62
 30
0.000000
  70
    32
  0
VERTEX
  8
0
  5
ACA
 10
3091.19
 20
1828.61
 30
0.000000
  70
    32
  0
VERTEX
  8
0
  5
ACB
 10
3091.24
 20
1828.61
 30
0.000000
  70
    32
  0
VERTEX
  8
0
  5
ACC
 10
3091.29
 20
1828.60
 30
0.000000
  70
    32
  0
VERTEX
  8
0
  5
ACD
 10
3091.34
 20
1828.60
 30
0.000000
  70
    32
  0
VERTEX
  8
0
  5
ACE
 10
3091.39
 20
1828.60
 30
0.000000
  70
    32
  0
VERTEX
  8
0
  5
ACF
 10
3091.44
 20
1828.60
 30
0.000000
  70
    32
  0
VERTEX
  8
0
  5
AD0
 10
3091.48
 20
1828.59
 30
0.000000
  70
    32
  0
VERTEX
  8
0
  5
AD1
 10
3091.53
 20
1828.59
 30
0.000000
  70
    32
  0
VERTEX
  8
0
  5
AD2
 10
3091.58
 20
1828.59
 30
0.000000
  70
    32
  0
VERTEX
  8
0
  5
AD3
 10
3091.63
 20
1828.58
 30
0.000000
  70
    32
  0
VERTEX
  8
0
  5
AD4
 10
3091.68
 20
1828.58
 30
0.000000
  70
    32
  0
VERTEX
  8
0
  5
AD5
 10
3091.73
 20
1828.58
 30
0.000000
  70
    32
  0
VERTEX
  8
0
  5
AD6
 10
3091.78
 20
1828.58
 30
0.000000
  70
    32
  0
VERTEX
  8
0
  5
AD7
 10
3091.82
 20
1828.58
 30
0.000000
  70
    32
  0
VERTEX
  8
0
  5
AD8
 10
3091.87
 20
1828.57
 30
0.000000
  70
    32
  0
VERTEX
  8
0
  5
AD9
 10
3091.92
 20
1828.57
 30
0.000000
  70
    32
  0
VERTEX
  8
0
  5
ADA
 10
3091.97
 20
1828.57
 30
0.000000
  70
    32
  0
VERTEX
  8
0
  5
ADB
 10
3092.02
 20
1828.57
 30
0.000000
  70
    32
  0
VERTEX
  8
0
  5
ADC
 10
3092.07
 20
1828.57
 30
0.000000
  70
    32
  0
VERTEX
  8
0
  5
ADD
 10
3092.11
 20
1828.57
 30
0.000000
  70
    32
  0
VERTEX
  8
0
  5
ADE
 10
3092.16
 20
1828.57
 30
0.000000
  70
    32
  0
VERTEX
  8
0
  5
ADF
 10
3092.21
 20
1828.57
 30
0.000000
  70
    32
  0
VERTEX
  8
0
  5
AE0
 10
3092.26
 20
1828.57
 30
0.000000
  70
    32
  0
VERTEX
  8
0
  5
AE1
 10
3092.31
 20
1828.57
 30
0.000000
  70
    32
  0
VERTEX
  8
0
  5
AE2
 10
3092.36
 20
1828.57
 30
0.000000
  70
    32
  0
VERTEX
  8
0
  5
AE3
 10
3092.41
 20
1828.57
 30
0.000000
  70
    32
  0
VERTEX
  8
0
  5
AE4
 10
3092.45
 20
1828.56
 30
0.000000
  70
    32
  0
SEQEND
  8
0
  5
AE5
  0
POLYLINE
  8
0
  5
AE6
  66
     1
 10
0.000000
 20
0.000000
 30
0.000000
  70
     8
  0
VERTEX
  8
0
  5
AE7
 10
3083.95
 20
1851.21
 30
0.000000
  70
    32
  0
VERTEX
  8
0
  5
AE8
 10
3083.94
 20
1851.21
 30
0.000000
  70
    32
  0
VERTEX
  8
0
  5
AE9
 10
3083.92
 20
1851.21
 30
0.000000
  70
    32
  0
VERTEX
  8
0
  5
AEA
 10
3083.90
 20
1851.21
 30
0.000000
  70
    32
  0
VERTEX
  8
0
  5
AEB
 10
3083.88
 20
1851.21
 30
0.000000
  70
    32
  0
VERTEX
  8
0
  5
AEC
 10
3083.86
 20
1851.21
 30
0.000000
  70
    32
  0
VERTEX
  8
0
  5
AED
 10
3083.84
 20
1851.21
 30
0.000000
  70
    32
  0
VERTEX
  8
0
  5
AEE
 10
3083.82
 20
1851.21
 30
0.000000
  70
    32
  0
VERTEX
  8
0
  5
AEF
 10
3083.80
 20
1851.21
 30
0.000000
  70
    32
  0
VERTEX
  8
0
  5
AF0
 10
3083.78
 20
1851.20
 30
0.000000
  70
    32
  0
VERTEX
  8
0
  5
AF1
 10
3083.76
 20
1851.20
 30
0.000000
  70
    32
  0
VERTEX
  8
0
  5
AF2
 10
3083.75
 20
1851.20
 30
0.000000
  70
    32
  0
VERTEX
  8
0
  5
AF3
 10
3083.73
 20
1851.20
 30
0.000000
  70
    32
  0
VERTEX
  8
0
  5
AF4
 10
3083.71
 20
1851.20
 30
0.000000
  70
    32
  0
VERTEX
  8
0
  5
AF5
 10
3083.69
 20
1851.20
 30
0.000000
  70
    32
  0
VERTEX
  8
0
  5
AF6
 10
3083.67
 20
1851.20
 30
0.000000
  70
    32
  0
VERTEX
  8
0
  5
AF7
 10
3083.65
 20
1851.20
 30
0.000000
  70
    32
  0
VERTEX
  8
0
  5
AF8
 10
3083.63
 20
1851.20
 30
0.000000
  70
    32
  0
VERTEX
  8
0
  5
AF9
 10
3083.61
 20
1851.20
 30
0.000000
  70
    32
  0
VERTEX
  8
0
  5
AFA
 10
3083.59
 20
1851.20
 30
0.000000
  70
    32
  0
VERTEX
  8
0
  5
AFB
 10
3083.58
 20
1851.19
 30
0.000000
  70
    32
  0
VERTEX
  8
0
  5
AFC
 10
3083.56
 20
1851.19
 30
0.000000
  70
    32
  0
VERTEX
  8
0
  5
AFD
 10
3083.54
 20
1851.19
 30
0.000000
  70
    32
  0
VERTEX
  8
0
  5
AFE
 10
3083.52
 20
1851.19
 30
0.000000
  70
    32
  0
VERTEX
  8
0
  5
AFF
 10
3083.50
 20
1851.19
 30
0.000000
  70
    32
  0
VERTEX
  8
0
  5
B00
 10
3083.48
 20
1851.19
 30
0.000000
  70
    32
  0
VERTEX
  8
0
  5
B01
 10
3083.46
 20
1851.19
 30
0.000000
  70
    32
  0
VERTEX
  8
0
  5
B02
 10
3083.44
 20
1851.18
 30
0.000000
  70
    32
  0
VERTEX
  8
0
  5
B03
 10
3083.42
 20
1851.18
 30
0.000000
  70
    32
  0
VERTEX
  8
0
  5
B04
 10
3083.41
 20
1851.18
 30
0.000000
  70
    32
  0
VERTEX
  8
0
  5
B05
 10
3083.39
 20
1851.18
 30
0.000000
  70
    32
  0
VERTEX
  8
0
  5
B06
 10
3083.37
 20
1851.18
 30
0.000000
  70
    32
  0
VERTEX
  8
0
  5
B07
 10
3083.35
 20
1851.17
 30
0.000000
  70
    32
  0
VERTEX
  8
0
  5
B08
 10
3083.33
 20
1851.17
 30
0.000000
  70
    32
  0
VERTEX
  8
0
  5
B09
 10
3083.31
 20
1851.17
 30
0.000000
  70
    32
  0
VERTEX
  8
0
  5
B0A
 10
3083.29
 20
1851.17
 30
0.000000
  70
    32
  0
VERTEX
  8
0
  5
B0B
 10
3083.27
 20
1851.16
 30
0.000000
  70
    32
  0
VERTEX
  8
0
  5
B0C
 10
3083.25
 20
1851.16
 30
0.000000
  70
    32
  0
VERTEX
  8
0
  5
B0D
 10
3083.24
 20
1851.16
 30
0.000000
  70
    32
  0
VERTEX
  8
0
  5
B0E
 10
3083.22
 20
1851.16
 30
0.000000
  70
    32
  0
VERTEX
  8
0
  5
B0F
 10
3083.20
 20
1851.15
 30
0.000000
  70
    32
  0
VERTEX
  8
0
  5
B10
 10
3083.18
 20
1851.15
 30
0.000000
  70
    32
  0
VERTEX
  8
0
  5
B11
 10
3083.16
 20
1851.15
 30
0.000000
  70
    32
  0
VERTEX
  8
0
  5
B12
 10
3083.14
 20
1851.15
 30
0.000000
  70
    32
  0
VERTEX
  8
0
  5
B13
 10
3083.12
 20
1851.14
 30
0.000000
  70
    32
  0
VERTEX
  8
0
  5
B14
 10
3083.10
 20
1851.14
 30
0.000000
  70
    32
  0
VERTEX
  8
0
  5
B15
 10
3083.08
 20
1851.14
 30
0.000000
  70
    32
  0
VERTEX
  8
0
  5
B16
 10
3083.07
 20
1851.13
 30
0.000000
  70
    32
  0
VERTEX
  8
0
  5
B17
 10
3083.05
 20
1851.13
 30
0.000000
  70
    32
  0
VERTEX
  8
0
  5
B18
 10
3083.03
 20
1851.13
 30
0.000000
  70
    32
  0
VERTEX
  8
0
  5
B19
 10
3083.01
 20
1851.13
 30
0.000000
  70
    32
  0
VERTEX
  8
0
  5
B1A
 10
3082.99
 20
1851.12
 30
0.000000
  70
    32
  0
VERTEX
  8
0
  5
B1B
 10
3082.97
 20
1851.12
 30
0.000000
  70
    32
  0
VERTEX
  8
0
  5
B1C
 10
3082.95
 20
1851.12
 30
0.000000
  70
    32
  0
VERTEX
  8
0
  5
B1D
 10
3082.93
 20
1851.11
 30
0.000000
  70
    32
  0
VERTEX
  8
0
  5
B1E
 10
3082.92
 20
1851.11
 30
0.000000
  70
    32
  0
VERTEX
  8
0
  5
B1F
 10
3082.90
 20
1851.10
 30
0.000000
  70
    32
  0
VERTEX
  8
0
  5
B20
 10
3082.88
 20
1851.10
 30
0.000000
  70
    32
  0
VERTEX
  8
0
  5
B21
 10
3082.86
 20
1851.10
 30
0.000000
  70
    32
  0
VERTEX
  8
0
  5
B22
 10
3082.84
 20
1851.09
 30
0.000000
  70
    32
  0
VERTEX
  8
0
  5
B23
 10
3082.82
 20
1851.09
 30
0.000000
  70
    32
  0
VERTEX
  8
0
  5
B24
 10
3082.80
 20
1851.08
 30
0.000000
  70
    32
  0
VERTEX
  8
0
  5
B25
 10
3082.79
 20
1851.08
 30
0.000000
  70
    32
  0
VERTEX
  8
0
  5
B26
 10
3082.77
 20
1851.08
 30
0.000000
  70
    32
  0
VERTEX
  8
0
  5
B27
 10
3082.75
 20
1851.07
 30
0.000000
  70
    32
  0
VERTEX
  8
0
  5
B28
 10
3082.73
 20
1851.07
 30
0.000000
  70
    32
  0
VERTEX
  8
0
  5
B29
 10
3082.71
 20
1851.06
 30
0.000000
  70
    32
  0
VERTEX
  8
0
  5
B2A
 10
3082.69
 20
1851.06
 30
0.000000
  70
    32
  0
VERTEX
  8
0
  5
B2B
 10
3082.67
 20
1851.05
 30
0.000000
  70
    32
  0
VERTEX
  8
0
  5
B2C
 10
3082.66
 20
1851.05
 30
0.000000
  70
    32
  0
VERTEX
  8
0
  5
B2D
 10
3082.64
 20
1851.05
 30
0.000000
  70
    32
  0
VERTEX
  8
0
  5
B2E
 10
3082.62
 20
1851.04
 30
0.000000
  70
    32
  0
VERTEX
  8
0
  5
B2F
 10
3082.60
 20
1851.04
 30
0.000000
  70
    32
  0
VERTEX
  8
0
  5
B30
 10
3082.58
 20
1851.03
 30
0.000000
  70
    32
  0
VERTEX
  8
0
  5
B31
 10
3082.56
 20
1851.03
 30
0.000000
  70
    32
  0
VERTEX
  8
0
  5
B32
 10
3082.55
 20
1851.02
 30
0.000000
  70
    32
  0
VERTEX
  8
0
  5
B33
 10
3082.53
 20
1851.02
 30
0.000000
  70
    32
  0
VERTEX
  8
0
  5
B34
 10
3082.51
 20
1851.01
 30
0.000000
  70
    32
  0
VERTEX
  8
0
  5
B35
 10
3082.49
 20
1851.01
 30
0.000000
  70
    32
  0
VERTEX
  8
0
  5
B36
 10
3082.47
 20
1851.00
 30
0.000000
  70
    32
  0
VERTEX
  8
0
  5
B37
 10
3082.45
 20
1851.00
 30
0.000000
  70
    32
  0
VERTEX
  8
0
  5
B38
 10
3082.44
 20
1850.99
 30
0.000000
  70
    32
  0
VERTEX
  8
0
  5
B39
 10
3082.42
 20
1850.98
 30
0.000000
  70
    32
  0
VERTEX
  8
0
  5
B3A
 10
3082.40
 20
1850.98
 30
0.000000
  70
    32
  0
VERTEX
  8
0
  5
B3B
 10
3082.38
 20
1850.97
 30
0.000000
  70
    32
  0
VERTEX
  8
0
  5
B3C
 10
3082.36
 20
1850.97
 30
0.000000
  70
    32
  0
VERTEX
  8
0
  5
B3D
 10
3082.34
 20
1850.96
 30
0.000000
  70
    32
  0
VERTEX
  8
0
  5
B3E
 10
3082.33
 20
1850.96
 30
0.000000
  70
    32
  0
VERTEX
  8
0
  5
B3F
 10
3082.31
 20
1850.95
 30
0.000000
  70
    32
  0
VERTEX
  8
0
  5
B40
 10
3082.29
 20
1850.94
 30
0.000000
  70
    32
  0
VERTEX
  8
0
  5
B41
 10
3082.27
 20
1850.94
 30
0.000000
  70
    32
  0
VERTEX
  8
0
  5
B42
 10
3082.25
 20
1850.93
 30
0.000000
  70
    32
  0
VERTEX
  8
0
  5
B43
 10
3082.24
 20
1850.93
 30
0.000000
  70
    32
  0
VERTEX
  8
0
  5
B44
 10
3082.22
 20
1850.92
 30
0.000000
  70
    32
  0
VERTEX
  8
0
  5
B45
 10
3082.20
 20
1850.91
 30
0.000000
  70
    32
  0
VERTEX
  8
0
  5
B46
 10
3082.18
 20
1850.91
 30
0.000000
  70
    32
  0
VERTEX
  8
0
  5
B47
 10
3082.16
 20
1850.90
 30
0.000000
  70
    32
  0
VERTEX
  8
0
  5
B48
 10
3082.15
 20
1850.89
 30
0.000000
  70
    32
  0
VERTEX
  8
0
  5
B49
 10
3082.13
 20
1850.89
 30
0.000000
  70
    32
  0
VERTEX
  8
0
  5
B4A
 10
3082.11
 20
1850.88
 30
0.000000
  70
    32
  0
VERTEX
  8
0
  5
B4B
 10
3082.09
 20
1850.87
 30
0.000000
  70
    32
  0
VERTEX
  8
0
  5
B4C
 10
3082.07
 20
1850.87
 30
0.000000
  70
    32
  0
VERTEX
  8
0
  5
B4D
 10
3082.06
 20
1850.86
 30
0.000000
  70
    32
  0
VERTEX
  8
0
  5
B4E
 10
3082.04
 20
1850.85
 30
0.000000
  70
    32
  0
VERTEX
  8
0
  5
B4F
 10
3082.02
 20
1850.85
 30
0.000000
  70
    32
  0
VERTEX
  8
0
  5
B50
 10
3082.00
 20
1850.84
 30
0.000000
  70
    32
  0
VERTEX
  8
0
  5
B51
 10
3081.99
 20
1850.83
 30
0.000000
  70
    32
  0
VERTEX
  8
0
  5
B52
 10
3081.97
 20
1850.83
 30
0.000000
  70
    32
  0
VERTEX
  8
0
  5
B53
 10
3081.95
 20
1850.82
 30
0.000000
  70
    32
  0
VERTEX
  8
0
  5
B54
 10
3081.93
 20
1850.81
 30
0.000000
  70
    32
  0
VERTEX
  8
0
  5
B55
 10
3081.92
 20
1850.80
 30
0.000000
  70
    32
  0
VERTEX
  8
0
  5
B56
 10
3081.90
 20
1850.80
 30
0.000000
  70
    32
  0
VERTEX
  8
0
  5
B57
 10
3081.88
 20
1850.79
 30
0.000000
  70
    32
  0
VERTEX
  8
0
  5
B58
 10
3081.86
 20
1850.78
 30
0.000000
  70
    32
  0
VERTEX
  8
0
  5
B59
 10
3081.85
 20
1850.77
 30
0.000000
  70
    32
  0
VERTEX
  8
0
  5
B5A
 10
3081.83
 20
1850.76
 30
0.000000
  70
    32
  0
VERTEX
  8
0
  5
B5B
 10
3081.81
 20
1850.76
 30
0.000000
  70
    32
  0
VERTEX
  8
0
  5
B5C
 10
3081.79
 20
1850.75
 30
0.000000
  70
    32
  0
VERTEX
  8
0
  5
B5D
 10
3081.78
 20
1850.74
 30
0.000000
  70
    32
  0
VERTEX
  8
0
  5
B5E
 10
3081.76
 20
1850.73
 30
0.000000
  70
    32
  0
VERTEX
  8
0
  5
B5F
 10
3081.74
 20
1850.72
 30
0.000000
  70
    32
  0
VERTEX
  8
0
  5
B60
 10
3081.73
 20
1850.72
 30
0.000000
  70
    32
  0
VERTEX
  8
0
  5
B61
 10
3081.71
 20
1850.71
 30
0.000000
  70
    32
  0
VERTEX
  8
0
  5
B62
 10
3081.69
 20
1850.70
 30
0.000000
  70
    32
  0
VERTEX
  8
0
  5
B63
 10
3081.67
 20
1850.69
 30
0.000000
  70
    32
  0
VERTEX
  8
0
  5
B64
 10
3081.66
 20
1850.68
 30
0.000000
  70
    32
  0
VERTEX
  8
0
  5
B65
 10
3081.64
 20
1850.67
 30
0.000000
  70
    32
  0
VERTEX
  8
0
  5
B66
 10
3081.62
 20
1850.66
 30
0.000000
  70
    32
  0
VERTEX
  8
0
  5
B67
 10
3081.61
 20
1850.66
 30
0.000000
  70
    32
  0
VERTEX
  8
0
  5
B68
 10
3081.59
 20
1850.65
 30
0.000000
  70
    32
  0
VERTEX
  8
0
  5
B69
 10
3081.57
 20
1850.64
 30
0.000000
  70
    32
  0
VERTEX
  8
0
  5
B6A
 10
3081.56
 20
1850.63
 30
0.000000
  70
    32
  0
VERTEX
  8
0
  5
B6B
 10
3081.54
 20
1850.62
 30
0.000000
  70
    32
  0
VERTEX
  8
0
  5
B6C
 10
3081.52
 20
1850.61
 30
0.000000
  70
    32
  0
VERTEX
  8
0
  5
B6D
 10
3081.51
 20
1850.60
 30
0.000000
  70
    32
  0
VERTEX
  8
0
  5
B6E
 10
3081.49
 20
1850.59
 30
0.000000
  70
    32
  0
VERTEX
  8
0
  5
B6F
 10
3081.47
 20
1850.58
 30
0.000000
  70
    32
  0
VERTEX
  8
0
  5
B70
 10
3081.46
 20
1850.57
 30
0.000000
  70
    32
  0
VERTEX
  8
0
  5
B71
 10
3081.44
 20
1850.56
 30
0.000000
  70
    32
  0
VERTEX
  8
0
  5
B72
 10
3081.42
 20
1850.55
 30
0.000000
  70
    32
  0
VERTEX
  8
0
  5
B73
 10
3081.41
 20
1850.54
 30
0.000000
  70
    32
  0
VERTEX
  8
0
  5
B74
 10
3081.39
 20
1850.53
 30
0.000000
  70
    32
  0
VERTEX
  8
0
  5
B75
 10
3081.38
 20
1850.52
 30
0.000000
  70
    32
  0
VERTEX
  8
0
  5
B76
 10
3081.36
 20
1850.51
 30
0.000000
  70
    32
  0
VERTEX
  8
0
  5
B77
 10
3081.34
 20
1850.50
 30
0.000000
  70
    32
  0
VERTEX
  8
0
  5
B78
 10
3081.33
 20
1850.49
 30
0.000000
  70
    32
  0
VERTEX
  8
0
  5
B79
 10
3081.31
 20
1850.48
 30
0.000000
  70
    32
  0
VERTEX
  8
0
  5
B7A
 10
3081.30
 20
1850.47
 30
0.000000
  70
    32
  0
VERTEX
  8
0
  5
B7B
 10
3081.28
 20
1850.46
 30
0.000000
  70
    32
  0
VERTEX
  8
0
  5
B7C
 10
3081.26
 20
1850.45
 30
0.000000
  70
    32
  0
VERTEX
  8
0
  5
B7D
 10
3081.25
 20
1850.44
 30
0.000000
  70
    32
  0
VERTEX
  8
0
  5
B7E
 10
3081.23
 20
1850.43
 30
0.000000
  70
    32
  0
VERTEX
  8
0
  5
B7F
 10
3081.22
 20
1850.42
 30
0.000000
  70
    32
  0
VERTEX
  8
0
  5
B80
 10
3081.20
 20
1850.41
 30
0.000000
  70
    32
  0
VERTEX
  8
0
  5
B81
 10
3081.18
 20
1850.40
 30
0.000000
  70
    32
  0
VERTEX
  8
0
  5
B82
 10
3081.17
 20
1850.39
 30
0.000000
  70
    32
  0
VERTEX
  8
0
  5
B83
 10
3081.15
 20
1850.38
 30
0.000000
  70
    32
  0
VERTEX
  8
0
  5
B84
 10
3081.14
 20
1850.37
 30
0.000000
  70
    32
  0
VERTEX
  8
0
  5
B85
 10
3081.12
 20
1850.36
 30
0.000000
  70
    32
  0
VERTEX
  8
0
  5
B86
 10
3081.11
 20
1850.35
 30
0.000000
  70
    32
  0
VERTEX
  8
0
  5
B87
 10
3081.09
 20
1850.33
 30
0.000000
  70
    32
  0
VERTEX
  8
0
  5
B88
 10
3081.08
 20
1850.32
 30
0.000000
  70
    32
  0
VERTEX
  8
0
  5
B89
 10
3081.06
 20
1850.31
 30
0.000000
  70
    32
  0
VERTEX
  8
0
  5
B8A
 10
3081.05
 20
1850.30
 30
0.000000
  70
    32
  0
VERTEX
  8
0
  5
B8B
 10
3081.03
 20
1850.29
 30
0.000000
  70
    32
  0
VERTEX
  8
0
  5
B8C
 10
3081.02
 20
1850.28
 30
0.000000
  70
    32
  0
VERTEX
  8
0
  5
B8D
 10
3081.00
 20
1850.26
 30
0.000000
  70
    32
  0
VERTEX
  8
0
  5
B8E
 10
3080.99
 20
1850.25
 30
0.000000
  70
    32
  0
VERTEX
  8
0
  5
B8F
 10
3080.97
 20
1850.24
 30
0.000000
  70
    32
  0
VERTEX
  8
0
  5
B90
 10
3080.96
 20
1850.23
 30
0.000000
  70
    32
  0
VERTEX
  8
0
  5
B91
 10
3080.94
 20
1850.22
 30
0.000000
  70
    32
  0
VERTEX
  8
0
  5
B92
 10
3080.93
 20
1850.20
 30
0.000000
  70
    32
  0
VERTEX
  8
0
  5
B93
 10
3080.91
 20
1850.19
 30
0.000000
  70
    32
  0
VERTEX
  8
0
  5
B94
 10
3080.90
 20
1850.18
 30
0.000000
  70
    32
  0
VERTEX
  8
0
  5
B95
 10
3080.89
 20
1850.17
 30
0.000000
  70
    32
  0
VERTEX
  8
0
  5
B96
 10
3080.87
 20
1850.16
 30
0.000000
  70
    32
  0
VERTEX
  8
0
  5
B97
 10
3080.86
 20
1850.14
 30
0.000000
  70
    32
  0
VERTEX
  8
0
  5
B98
 10
3080.84
 20
1850.13
 30
0.000000
  70
    32
  0
VERTEX
  8
0
  5
B99
 10
3080.83
 20
1850.12
 30
0.000000
  70
    32
  0
VERTEX
  8
0
  5
B9A
 10
3080.81
 20
1850.10
 30
0.000000
  70
    32
  0
VERTEX
  8
0
  5
B9B
 10
3080.80
 20
1850.09
 30
0.000000
  70
    32
  0
VERTEX
  8
0
  5
B9C
 10
3080.79
 20
1850.08
 30
0.000000
  70
    32
  0
VERTEX
  8
0
  5
B9D
 10
3080.77
 20
1850.07
 30
0.000000
  70
    32
  0
VERTEX
  8
0
  5
B9E
 10
3080.76
 20
1850.05
 30
0.000000
  70
    32
  0
VERTEX
  8
0
  5
B9F
 10
3080.75
 20
1850.04
 30
0.000000
  70
    32
  0
VERTEX
  8
0
  5
BA0
 10
3080.73
 20
1850.03
 30
0.000000
  70
    32
  0
VERTEX
  8
0
  5
BA1
 10
3080.72
 20
1850.01
 30
0.000000
  70
    32
  0
VERTEX
  8
0
  5
BA2
 10
3080.71
 20
1850.00
 30
0.000000
  70
    32
  0
VERTEX
  8
0
  5
BA3
 10
3080.69
 20
1849.99
 30
0.000000
  70
    32
  0
VERTEX
  8
0
  5
BA4
 10
3080.68
 20
1849.97
 30
0.000000
  70
    32
  0
VERTEX
  8
0
  5
BA5
 10
3080.67
 20
1849.96
 30
0.000000
  70
    32
  0
VERTEX
  8
0
  5
BA6
 10
3080.65
 20
1849.95
 30
0.000000
  70
    32
  0
VERTEX
  8
0
  5
BA7
 10
3080.64
 20
1849.93
 30
0.000000
  70
    32
  0
VERTEX
  8
0
  5
BA8
 10
3080.63
 20
1849.92
 30
0.000000
  70
    32
  0
VERTEX
  8
0
  5
BA9
 10
3080.61
 20
1849.90
 30
0.000000
  70
    32
  0
VERTEX
  8
0
  5
BAA
 10
3080.60
 20
1849.89
 30
0.000000
  70
    32
  0
VERTEX
  8
0
  5
BAB
 10
3080.59
 20
1849.88
 30
0.000000
  70
    32
  0
VERTEX
  8
0
  5
BAC
 10
3080.58
 20
1849.86
 30
0.000000
  70
    32
  0
VERTEX
  8
0
  5
BAD
 10
3080.56
 20
1849.85
 30
0.000000
  70
    32
  0
VERTEX
  8
0
  5
BAE
 10
3080.55
 20
1849.83
 30
0.000000
  70
    32
  0
VERTEX
  8
0
  5
BAF
 10
3080.54
 20
1849.82
 30
0.000000
  70
    32
  0
VERTEX
  8
0
  5
BB0
 10
3080.53
 20
1849.80
 30
0.000000
  70
    32
  0
VERTEX
  8
0
  5
BB1
 10
3080.51
 20
1849.79
 30
0.000000
  70
    32
  0
VERTEX
  8
0
  5
BB2
 10
3080.50
 20
1849.77
 30
0.000000
  70
    32
  0
VERTEX
  8
0
  5
BB3
 10
3080.49
 20
1849.76
 30
0.000000
  70
    32
  0
VERTEX
  8
0
  5
BB4
 10
3080.48
 20
1849.74
 30
0.000000
  70
    32
  0
VERTEX
  8
0
  5
BB5
 10
3080.47
 20
1849.73
 30
0.000000
  70
    32
  0
VERTEX
  8
0
  5
BB6
 10
3080.46
 20
1849.71
 30
0.000000
  70
    32
  0
VERTEX
  8
0
  5
BB7
 10
3080.44
 20
1849.70
 30
0.000000
  70
    32
  0
VERTEX
  8
0
  5
BB8
 10
3080.43
 20
1849.68
 30
0.000000
  70
    32
  0
VERTEX
  8
0
  5
BB9
 10
3080.42
 20
1849.67
 30
0.000000
  70
    32
  0
VERTEX
  8
0
  5
BBA
 10
3080.41
 20
1849.65
 30
0.000000
  70
    32
  0
VERTEX
  8
0
  5
BBB
 10
3080.40
 20
1849.64
 30
0.000000
  70
    32
  0
VERTEX
  8
0
  5
BBC
 10
3080.39
 20
1849.62
 30
0.000000
  70
    32
  0
VERTEX
  8
0
  5
BBD
 10
3080.38
 20
1849.61
 30
0.000000
  70
    32
  0
VERTEX
  8
0
  5
BBE
 10
3080.37
 20
1849.59
 30
0.000000
  70
    32
  0
VERTEX
  8
0
  5
BBF
 10
3080.36
 20
1849.58
 30
0.000000
  70
    32
  0
VERTEX
  8
0
  5
BC0
 10
3080.35
 20
1849.56
 30
0.000000
  70
    32
  0
VERTEX
  8
0
  5
BC1
 10
3080.34
 20
1849.54
 30
0.000000
  70
    32
  0
VERTEX
  8
0
  5
BC2
 10
3080.32
 20
1849.53
 30
0.000000
  70
    32
  0
VERTEX
  8
0
  5
BC3
 10
3080.31
 20
1849.51
 30
0.000000
  70
    32
  0
VERTEX
  8
0
  5
BC4
 10
3080.30
 20
1849.50
 30
0.000000
  70
    32
  0
VERTEX
  8
0
  5
BC5
 10
3080.29
 20
1849.48
 30
0.000000
  70
    32
  0
VERTEX
  8
0
  5
BC6
 10
3080.29
 20
1849.46
 30
0.000000
  70
    32
  0
VERTEX
  8
0
  5
BC7
 10
3080.28
 20
1849.45
 30
0.000000
  70
    32
  0
VERTEX
  8
0
  5
BC8
 10
3080.27
 20
1849.43
 30
0.000000
  70
    32
  0
VERTEX
  8
0
  5
BC9
 10
3080.26
 20
1849.41
 30
0.000000
  70
    32
  0
VERTEX
  8
0
  5
BCA
 10
3080.25
 20
1849.40
 30
0.000000
  70
    32
  0
VERTEX
  8
0
  5
BCB
 10
3080.24
 20
1849.38
 30
0.000000
  70
    32
  0
VERTEX
  8
0
  5
BCC
 10
3080.23
 20
1849.36
 30
0.000000
  70
    32
  0
VERTEX
  8
0
  5
BCD
 10
3080.22
 20
1849.35
 30
0.000000
  70
    32
  0
VERTEX
  8
0
  5
BCE
 10
3080.21
 20
1849.33
 30
0.000000
  70
    32
  0
VERTEX
  8
0
  5
BCF
 10
3080.20
 20
1849.31
 30
0.000000
  70
    32
  0
VERTEX
  8
0
  5
BD0
 10
3080.19
 20
1849.30
 30
0.000000
  70
    32
  0
VERTEX
  8
0
  5
BD1
 10
3080.19
 20
1849.28
 30
0.000000
  70
    32
  0
VERTEX
  8
0
  5
BD2
 10
3080.18
 20
1849.26
 30
0.000000
  70
    32
  0
VERTEX
  8
0
  5
BD3
 10
3080.17
 20
1849.25
 30
0.000000
  70
    32
  0
VERTEX
  8
0
  5
BD4
 10
3080.16
 20
1849.23
 30
0.000000
  70
    32
  0
VERTEX
  8
0
  5
BD5
 10
3080.15
 20
1849.21
 30
0.000000
  70
    32
  0
VERTEX
  8
0
  5
BD6
 10
3080.15
 20
1849.19
 30
0.000000
  70
    32
  0
VERTEX
  8
0
  5
BD7
 10
3080.14
 20
1849.18
 30
0.000000
  70
    32
  0
VERTEX
  8
0
  5
BD8
 10
3080.13
 20
1849.16
 30
0.000000
  70
    32
  0
VERTEX
  8
0
  5
BD9
 10
3080.12
 20
1849.14
 30
0.000000
  70
    32
  0
VERTEX
  8
0
  5
BDA
 10
3080.12
 20
1849.12
 30
0.000000
  70
    32
  0
VERTEX
  8
0
  5
BDB
 10
3080.11
 20
1849.11
 30
0.000000
  70
    32
  0
VERTEX
  8
0
  5
BDC
 10
3080.10
 20
1849.09
 30
0.000000
  70
    32
  0
VERTEX
  8
0
  5
BDD
 10
3080.09
 20
1849.07
 30
0.000000
  70
    32
  0
VERTEX
  8
0
  5
BDE
 10
3080.09
 20
1849.05
 30
0.000000
  70
    32
  0
VERTEX
  8
0
  5
BDF
 10
3080.08
 20
1849.04
 30
0.000000
  70
    32
  0
VERTEX
  8
0
  5
BE0
 10
3080.08
 20
1849.02
 30
0.000000
  70
    32
  0
VERTEX
  8
0
  5
BE1
 10
3080.07
 20
1849.00
 30
0.000000
  70
    32
  0
VERTEX
  8
0
  5
BE2
 10
3080.06
 20
1848.98
 30
0.000000
  70
    32
  0
VERTEX
  8
0
  5
BE3
 10
3080.06
 20
1848.96
 30
0.000000
  70
    32
  0
VERTEX
  8
0
  5
BE4
 10
3080.05
 20
1848.95
 30
0.000000
  70
    32
  0
VERTEX
  8
0
  5
BE5
 10
3080.05
 20
1848.93
 30
0.000000
  70
    32
  0
VERTEX
  8
0
  5
BE6
 10
3080.04
 20
1848.91
 30
0.000000
  70
    32
  0
VERTEX
  8
0
  5
BE7
 10
3080.04
 20
1848.89
 30
0.000000
  70
    32
  0
VERTEX
  8
0
  5
BE8
 10
3080.03
 20
1848.87
 30
0.000000
  70
    32
  0
VERTEX
  8
0
  5
BE9
 10
3080.03
 20
1848.85
 30
0.000000
  70
    32
  0
VERTEX
  8
0
  5
BEA
 10
3080.02
 20
1848.84
 30
0.000000
  70
    32
  0
VERTEX
  8
0
  5
BEB
 10
3080.02
 20
1848.82
 30
0.000000
  70
    32
  0
VERTEX
  8
0
  5
BEC
 10
3080.01
 20
1848.80
 30
0.000000
  70
    32
  0
VERTEX
  8
0
  5
BED
 10
3080.01
 20
1848.78
 30
0.000000
  70
    32
  0
VERTEX
  8
0
  5
BEE
 10
3080.00
 20
1848.76
 30
0.000000
  70
    32
  0
VERTEX
  8
0
  5
BEF
 10
3080.00
 20
1848.74
 30
0.000000
  70
    32
  0
VERTEX
  8
0
  5
BF0
 10
3080.00
 20
1848.72
 30
0.000000
  70
    32
  0
VERTEX
  8
0
  5
BF1
 10
3079.99
 20
1848.71
 30
0.000000
  70
    32
  0
VERTEX
  8
0
  5
BF2
 10
3079.99
 20
1848.69
 30
0.000000
  70
    32
  0
VERTEX
  8
0
  5
BF3
 10
3079.99
 20
1848.67
 30
0.000000
  70
    32
  0
VERTEX
  8
0
  5
BF4
 10
3079.98
 20
1848.65
 30
0.000000
  70
    32
  0
VERTEX
  8
0
  5
BF5
 10
3079.98
 20
1848.63
 30
0.000000
  70
    32
  0
VERTEX
  8
0
  5
BF6
 10
3079.98
 20
1848.61
 30
0.000000
  70
    32
  0
VERTEX
  8
0
  5
BF7
 10
3079.97
 20
1848.59
 30
0.000000
  70
    32
  0
VERTEX
  8
0
  5
BF8
 10
3079.97
 20
1848.57
 30
0.000000
  70
    32
  0
VERTEX
  8
0
  5
BF9
 10
3079.97
 20
1848.56
 30
0.000000
  70
    32
  0
VERTEX
  8
0
  5
BFA
 10
3079.97
 20
1848.54
 30
0.000000
  70
    32
  0
VERTEX
  8
0
  5
BFB
 10
3079.96
 20
1848.52
 30
0.000000
  70
    32
  0
VERTEX
  8
0
  5
BFC
 10
3079.96
 20
1848.50
 30
0.000000
  70
    32
  0
VERTEX
  8
0
  5
BFD
 10
3079.96
 20
1848.48
 30
0.000000
  70
    32
  0
VERTEX
  8
0
  5
BFE
 10
3079.96
 20
1848.46
 30
0.000000
  70
    32
  0
VERTEX
  8
0
  5
BFF
 10
3079.96
 20
1848.44
 30
0.000000
  70
    32
  0
VERTEX
  8
0
  5
C00
 10
3079.96
 20
1848.42
 30
0.000000
  70
    32
  0
VERTEX
  8
0
  5
C01
 10
3079.96
 20
1848.40
 30
0.000000
  70
    32
  0
VERTEX
  8
0
  5
C02
 10
3079.96
 20
1848.38
 30
0.000000
  70
    32
  0
VERTEX
  8
0
  5
C03
 10
3079.95
 20
1848.37
 30
0.000000
  70
    32
  0
VERTEX
  8
0
  5
C04
 10
3079.95
 20
1848.35
 30
0.000000
  70
    32
  0
VERTEX
  8
0
  5
C05
 10
3079.95
 20
1848.33
 30
0.000000
  70
    32
  0
VERTEX
  8
0
  5
C06
 10
3079.95
 20
1848.31
 30
0.000000
  70
    32
  0
SEQEND
  8
0
  5
C07
  0
ENDSEC
  0
EOF
